  0
SECTION
  2
HEADER
  9
$ACADVER
  1
AC1009
  9
$INSBASE
 10
0.0
 20
0.0
 30
0.0
  9
$EXTMIN
 10
-260.02197097989512
 20
-399.89220955822299
 30
-0.0015258207003583
  9
$EXTMAX
 10
460.0219743326561
 20
670.62804802803294
 30
0.0000000349246037
  9
$LIMMIN
 10
0.0
 20
0.0
  9
$LIMMAX
 10
0.0
 20
0.0
  9
$ORTHOMODE
 70
     0
  9
$REGENMODE
 70
     1
  9
$FILLMODE
 70
     1
  9
$QTEXTMODE
 70
     0
  9
$MIRRTEXT
 70
     1
  9
$DRAGMODE
 70
     2
  9
$LTSCALE
 40
20.32
  9
$OSMODE
 70
   231
  9
$ATTMODE
 70
     1
  9
$TEXTSIZE
 40
0.0
  9
$TRACEWID
 40
1.0
  9
$TEXTSTYLE
  7
STANDARD
  9
$CLAYER
  8
DATA
  9
$CELTYPE
  6
BYLAYER
  9
$CECOLOR
 62
   256
  9
$DIMSCALE
 40
1.0
  9
$DIMASZ
 40
0.18
  9
$DIMEXO
 40
0.0625
  9
$DIMDLI
 40
0.38
  9
$DIMRND
 40
0.0
  9
$DIMDLE
 40
0.0
  9
$DIMEXE
 40
0.18
  9
$DIMTP
 40
0.0
  9
$DIMTM
 40
0.0
  9
$DIMTXT
 40
0.18
  9
$DIMCEN
 40
0.09
  9
$DIMTSZ
 40
0.0
  9
$DIMTOL
 70
     0
  9
$DIMLIM
 70
     0
  9
$DIMTIH
 70
     1
  9
$DIMTOH
 70
     1
  9
$DIMSE1
 70
     0
  9
$DIMSE2
 70
     0
  9
$DIMTAD
 70
     0
  9
$DIMZIN
 70
     0
  9
$DIMBLK
  1

  9
$DIMASO
 70
     1
  9
$DIMSHO
 70
     1
  9
$DIMPOST
  1

  9
$DIMAPOST
  1

  9
$DIMALT
 70
     0
  9
$DIMALTD
 70
     2
  9
$DIMALTF
 40
25.399999999999999
  9
$DIMLFAC
 40
1.0
  9
$DIMTOFL
 70
     0
  9
$DIMTVP
 40
0.0
  9
$DIMTIX
 70
     0
  9
$DIMSOXD
 70
     0
  9
$DIMSAH
 70
     0
  9
$DIMBLK1
  1

  9
$DIMBLK2
  1

  9
$DIMSTYLE
  2
STANDARD
  9
$DIMCLRD
 70
     0
  9
$DIMCLRE
 70
     0
  9
$DIMCLRT
 70
     0
  9
$DIMTFAC
 40
1.0
  9
$DIMGAP
 40
0.09
  9
$LUNITS
 70
     2
  9
$LUPREC
 70
     4
  9
$SKETCHINC
 40
0.1
  9
$FILLETRAD
 40
0.0
  9
$AUNITS
 70
     0
  9
$AUPREC
 70
     0
  9
$MENU
  1
acad
  9
$ELEVATION
 40
0.0
  9
$PELEVATION
 40
0.0
  9
$THICKNESS
 40
0.0
  9
$LIMCHECK
 70
     0
  9
$BLIPMODE
 70
     0
  9
$CHAMFERA
 40
0.0
  9
$CHAMFERB
 40
0.0
  9
$SKPOLY
 70
     0
  9
$TDCREATE
 40
2455092.6662384262
  9
$TDUPDATE
 40
2455092.6799042481
  9
$TDINDWG
 40
0.0002758218
  9
$TDUSRTIMER
 40
0.0002756366
  9
$USRTIMER
 70
     1
  9
$ANGBASE
 50
0.0
  9
$ANGDIR
 70
     0
  9
$PDMODE
 70
     1
  9
$PDSIZE
 40
-2.0
  9
$PLINEWID
 40
0.0
  9
$COORDS
 70
     0
  9
$SPLFRAME
 70
     0
  9
$SPLINETYPE
 70
     6
  9
$SPLINESEGS
 70
     8
  9
$ATTDIA
 70
     0
  9
$ATTREQ
 70
     1
  9
$HANDLING
 70
     1
  9
$HANDSEED
  5
294
  9
$SURFTAB1
 70
     6
  9
$SURFTAB2
 70
     6
  9
$SURFTYPE
 70
     6
  9
$SURFU
 70
     6
  9
$SURFV
 70
     6
  9
$UCSNAME
  2

  9
$UCSORG
 10
0.0
 20
0.0
 30
0.0
  9
$UCSXDIR
 10
1.0
 20
0.0
 30
0.0
  9
$UCSYDIR
 10
0.0
 20
1.0
 30
0.0
  9
$PUCSNAME
  2

  9
$PUCSORG
 10
0.0
 20
0.0
 30
0.0
  9
$PUCSXDIR
 10
1.0
 20
0.0
 30
0.0
  9
$PUCSYDIR
 10
0.0
 20
1.0
 30
0.0
  9
$USERI1
 70
     0
  9
$USERI2
 70
     0
  9
$USERI3
 70
     0
  9
$USERI4
 70
     0
  9
$USERI5
 70
     0
  9
$USERR1
 40
0.0
  9
$USERR2
 40
0.0
  9
$USERR3
 40
0.0
  9
$USERR4
 40
0.0
  9
$USERR5
 40
0.0
  9
$WORLDVIEW
 70
     1
  9
$SHADEDGE
 70
     3
  9
$SHADEDIF
 70
    70
  9
$TILEMODE
 70
     1
  9
$MAXACTVP
 70
    64
  9
$PLIMCHECK
 70
     0
  9
$PEXTMIN
 10
1.0000000000000000E+020
 20
1.0000000000000000E+020
 30
1.0000000000000000E+020
  9
$PEXTMAX
 10
-1.0000000000000000E+020
 20
-1.0000000000000000E+020
 30
-1.0000000000000000E+020
  9
$PLIMMIN
 10
0.0
 20
0.0
  9
$PLIMMAX
 10
12.0
 20
9.0
  9
$UNITMODE
 70
     0
  9
$VISRETAIN
 70
     0
  9
$PLINEGEN
 70
     1
  9
$PSLTSCALE
 70
     0
  0
ENDSEC
  0
SECTION
  2
TABLES
  0
TABLE
  2
VPORT
 70
     1
  0
VPORT
  2
*ACTIVE
 70
     0
 10
0.0
 20
0.0
 11
1.0
 21
1.0
 12
100.00000167638051
 22
135.367919234905
 13
0.0
 23
0.0
 14
1.0
 24
1.0
 15
0.0
 25
0.0
 16
0.0
 26
0.0
 36
1.0
 17
0.0
 27
0.0
 37
0.0
 40
1078.4992905620541
 41
1.9863184079601981
 42
50.0
 43
0.0
 44
0.0
 50
0.0
 51
0.0
 71
     0
 72
  2000
 73
     1
 74
     1
 75
     0
 76
     0
 77
     0
 78
     0
  0
ENDTAB
  0
TABLE
  2
LTYPE
 70
    11
  0
LTYPE
  2
CONTINUOUS
 70
     0
  3
Solid line
 72
    65
 73
     0
 40
0.0
  0
LTYPE
  2
STYLE_06
 70
     0
  3

 72
    65
 73
     4
 40
1.0416412353515621
 49
0.625
 49
-0.208282470703125
 49
0.069427490234375
 49
-0.1389312744140625
  0
ENDTAB
  0
TABLE
  2
LAYER
 70
     5
  0
LAYER
  2
0
 70
     0
 62
     7
  6
CONTINUOUS
  0
LAYER
  2
DATA
 70
     0
 62
     7
  6
CONTINUOUS
  0
LAYER
  2
HIBINO-BASE
 70
     0
 62
     7
  6
CONTINUOUS
  0
LAYER
  2
SPEC
 70
     0
 62
     7
  6
CONTINUOUS
  0
LAYER
  2
DIMNSIONS
 70
     0
 62
     7
  6
CONTINUOUS
  0
ENDTAB
  0
TABLE
  2
STYLE
 70
     3
  0
STYLE
  2
STANDARD
 70
     0
 40
0.0
 41
1.0
 50
0.0
 71
     0
 42
0.0
  3
txt
  4
BIGFONT.SHX
  0
ENDTAB
  0
TABLE
  2
VIEW
 70
     0
  0
ENDTAB
  0
TABLE
  2
UCS
 70
     0
  0
ENDTAB
  0
TABLE
  2
APPID
 70
     3
  0
APPID
  2
ACAD
 70
     0
  0
APPID
  2
ACADANNOTATIVE
 70
     0
  0
APPID
  2
ACAD_MLEADERVER
 70
     0
  0
ENDTAB
  0
TABLE
  2
DIMSTYLE
 70
     2
  0
DIMSTYLE
  2
STANDARD
 70
     0
  3

  4

  5

  6

  7

 40
1.0
 41
0.18
 42
0.0625
 43
0.38
 44
0.18
 45
0.0
 46
0.0
 47
0.0
 48
0.0
140
0.18
141
0.09
142
0.0
143
25.399999999999999
144
1.0
145
0.0
146
1.0
147
0.09
 71
     0
 72
     0
 73
     1
 74
     1
 75
     0
 76
     0
 77
     0
 78
     0
170
     0
171
     2
172
     0
173
     0
174
     0
175
     0
176
     0
177
     0
178
     0
  0
ENDTAB
  0
ENDSEC
  0
SECTION
  2
BLOCKS
  0
BLOCK
  8
0
  2
$MODEL_SPACE
 70
     0
 10
0.0
 20
0.0
 30
0.0
  3
$MODEL_SPACE
  1

  0
ENDBLK
  5
22E
  8
0
  0
BLOCK
 67
     1
  8
0
  2
$PAPER_SPACE
 70
     0
 10
0.0
 20
0.0
 30
0.0
  3
$PAPER_SPACE
  1

  0
ENDBLK
  5
22A
 67
     1
  8
0
  0
ENDSEC
  0
SECTION
  2
ENTITIES
  0
LINE
  5
2C
  8
HIBINO-BASE
  6
CONTINUOUS
 62
     7
 10
-260.0
 20
670.59544499999981
 30
0.0
 11
460.0
 21
670.59544499999981
 31
0.0
  0
LINE
  5
2D
  8
HIBINO-BASE
  6
CONTINUOUS
 62
     7
 10
460.0
 20
-369.40455500000002
 30
0.0
 11
-260.0
 21
-369.40455500000002
 31
0.0
  0
LINE
  5
2E
  8
HIBINO-BASE
  6
CONTINUOUS
 62
     7
 10
-260.0
 20
-369.40455500000002
 30
0.0
 11
-260.0
 21
670.59544499999981
 31
0.0
  0
TEXT
  5
2F
  8
HIBINO-BASE
 62
     7
 10
-231.26400000000001
 20
-395.03926619999982
 30
0.0
 40
14.40017671875
  1
Hibino Corporation
 41
0.7
 11
-231.26400000000001
 21
-380.63908948124981
 31
0.0
 73
     3
  0
LINE
  5
30
  8
HIBINO-BASE
  6
CONTINUOUS
 62
     7
 10
460.0
 20
670.59544499999981
 30
0.0
 11
460.0
 21
-369.40455500000002
 31
0.0
  0
LINE
  5
31
  8
HIBINO-BASE
  6
CONTINUOUS
 62
     7
 10
100.0
 20
-279.40455500000002
 30
0.0
 11
460.0
 21
-279.40455500000002
 31
0.0
  0
LINE
  5
32
  8
HIBINO-BASE
  6
CONTINUOUS
 62
     7
 10
100.0
 20
-369.40455500000002
 30
0.0
 11
100.0
 21
-279.40455500000002
 31
0.0
  0
TEXT
  5
33
  8
HIBINO-BASE
 62
     7
 10
103.59999999999999
 20
-289.43932833333332
 30
0.0
 40
6.5153645833333318
  1
NOTE
 41
0.7
 11
103.59999999999999
 21
-282.92396374999998
 31
0.0
 73
     3
  0
LINE
  5
34
  8
HIBINO-BASE
  6
CONTINUOUS
 62
     7
 10
240.0
 20
-369.40455500000002
 30
0.0
 11
240.0
 21
-279.40455500000002
 31
0.0
  0
TEXT
  5
35
  8
HIBINO-BASE
 62
     7
 10
243.59999999999999
 20
-289.43932833333332
 30
0.0
 40
6.5153645833333318
  1
TITLE
 41
0.7
 11
243.59999999999999
 21
-282.92396374999998
 31
0.0
 73
     3
  0
TEXT
  5
36
  8
HIBINO-BASE
 62
     7
 10
300.27355999999997
 20
-395.03926619999982
 30
0.0
 40
14.40017671875
  1
ヒビノ株式会社
 41
0.7
 11
300.27355999999997
 21
-380.63908948124981
 31
0.0
 73
     3
  0
LINE
  5
37
  8
HIBINO-BASE
  6
CONTINUOUS
 62
     7
 10
100.0
 20
-329.40455500000002
 30
0.0
 11
460.0
 21
-329.40455500000002
 31
0.0
  0
TEXT
  5
38
  8
HIBINO-BASE
 62
     7
 10
293.60000000000002
 20
-339.21404833333332
 30
0.0
 40
6.5153645833333318
  1
DRAWN
 41
0.7
 11
293.60000000000002
 21
-332.69868374999999
 31
0.0
 73
     3
  0
TEXT
  5
39
  8
HIBINO-BASE
 62
     7
 10
193.59999999999999
 20
-339.21404833333332
 30
0.0
 40
6.5153645833333318
  1
DATE
 41
0.7
 11
193.59999999999999
 21
-332.69868374999999
 31
0.0
 73
     3
  0
TEXT
  5
3A
  8
HIBINO-BASE
 62
     7
 10
153.59999999999991
 20
-339.21404833333332
 30
0.0
 40
6.5153645833333318
  1
SCALE
 41
0.7
 11
153.59999999999991
 21
-332.69868374999999
 31
0.0
 73
     3
  0
TEXT
  5
3B
  8
HIBINO-BASE
 62
     7
 10
243.59999999999999
 20
-339.21404833333332
 30
0.0
 40
6.5153645833333318
  1
DESIGN
 41
0.7
 11
243.59999999999999
 21
-332.69868374999999
 31
0.0
 73
     3
  0
TEXT
  5
3C
  8
HIBINO-BASE
 62
     7
 10
393.60000000000002
 20
-339.21404833333332
 30
0.0
 40
6.5153645833333318
  1
DRAWING NO.
 41
0.7
 11
393.60000000000002
 21
-332.69868374999999
 31
0.0
 73
     3
  0
TEXT
  5
3D
  8
HIBINO-BASE
 62
     7
 10
343.60000000000002
 20
-339.21404833333332
 30
0.0
 40
6.5153645833333318
  1
CHECK
 41
0.7
 11
343.60000000000002
 21
-332.69868374999999
 31
0.0
 73
     3
  0
LINE
  5
3E
  8
HIBINO-BASE
  6
CONTINUOUS
 62
     7
 10
157.5
 20
-364.40455500000002
 30
0.0
 11
172.5
 21
-349.40455500000002
 31
0.0
  0
TEXT
  5
3F
  8
HIBINO-BASE
 62
     7
 10
155.0
 20
-353.84032833333328
 30
0.0
 40
6.5153645833333318
  1
1
 41
0.7
 11
155.0
 21
-347.32496374999999
 31
0.0
 73
     3
  0
LINE
  5
40
  8
HIBINO-BASE
  6
CONTINUOUS
 62
     7
 10
150.0
 20
-369.40455500000002
 30
0.0
 11
150.0
 21
-329.40455500000002
 31
0.0
  0
LINE
  5
41
  8
HIBINO-BASE
  6
CONTINUOUS
 62
     7
 10
190.0
 20
-369.40455500000002
 30
0.0
 11
190.0
 21
-329.40455500000002
 31
0.0
  0
LINE
  5
42
  8
HIBINO-BASE
  6
CONTINUOUS
 62
     7
 10
290.0
 20
-329.40455500000002
 30
0.0
 11
290.0
 21
-369.40455500000002
 31
0.0
  0
LINE
  5
43
  8
HIBINO-BASE
  6
CONTINUOUS
 62
     7
 10
390.0
 20
-329.40455500000002
 30
0.0
 11
390.0
 21
-369.40455500000002
 31
0.0
  0
LINE
  5
44
  8
HIBINO-BASE
  6
CONTINUOUS
 62
     7
 10
339.99999999999989
 20
-369.40455500000002
 30
0.0
 11
339.99999999999989
 21
-329.40455500000002
 31
0.0
  0
TEXT
  5
45
  8
HIBINO-BASE
 62
     7
 10
193.42616000000001
 20
-357.9499683333334
 30
0.0
 40
6.5153645833333318
  1
'09.09.
 41
0.7
 11
193.42616000000001
 21
-351.43460375000001
 31
0.0
 73
     3
  0
TEXT
  5
46
  8
HIBINO-BASE
 62
     7
 10
170.0
 20
-361.34032833333339
 30
0.0
 40
6.5153645833333318
  1
4
 41
0.7
 11
170.0
 21
-354.82496374999999
 31
0.0
 73
     3
  0
TEXT
  5
47
  8
HIBINO-BASE
 62
     7
 10
296.0232400441385
 20
-357.9499683333334
 30
0.0
 40
6.5153645833333318
  1
N.Sasaki
 41
0.7
 11
296.0232400441385
 21
-351.43460375000001
 31
0.0
 73
     3
  0
TEXT
  5
48
  8
HIBINO-BASE
 62
     7
 10
115.5333333333334
 20
-361.50055500000002
 30
0.0
 40
13.03072916666666
  1
A4
 41
0.7
 11
115.5333333333334
 21
-348.46982583333329
 31
0.0
 73
     3
  0
TEXT
  5
49
  8
HIBINO-BASE
 62
     7
 10
103.8333333333333
 20
-339.88237500000002
 30
0.0
 40
6.5153645833333318
  1
PAPER SIZE
 41
0.7
 11
103.8333333333333
 21
-333.36701041666657
 31
0.0
 73
     3
  0
LINE
  5
4A
  8
SPEC
  6
CONTINUOUS
 62
     7
 10
-230.0
 20
630.5954449999997
 30
0.0
 11
360.0
 21
630.5954449999997
 31
0.0
  0
LINE
  5
4B
  8
SPEC
  6
CONTINUOUS
 62
     7
 10
-230.0
 20
615.59544499999981
 30
0.0
 11
360.0
 21
615.59544499999981
 31
0.0
  0
LINE
  5
4C
  8
SPEC
  6
CONTINUOUS
 62
     7
 10
-230.0
 20
555.59544499999993
 30
0.0
 11
360.0
 21
555.59544499999993
 31
0.0
  0
LINE
  5
4D
  8
SPEC
  6
CONTINUOUS
 62
     7
 10
-230.0
 20
570.59544499999981
 30
0.0
 11
360.0
 21
570.59544499999981
 31
0.0
  0
LINE
  5
4E
  8
SPEC
  6
CONTINUOUS
 62
     7
 10
-230.0
 20
585.5954449999997
 30
0.0
 11
360.0
 21
585.5954449999997
 31
0.0
  0
LINE
  5
4F
  8
SPEC
  6
CONTINUOUS
 62
     7
 10
-230.0
 20
540.59544499999993
 30
0.0
 11
360.0
 21
540.59544499999993
 31
0.0
  0
LINE
  5
50
  8
SPEC
  6
CONTINUOUS
 62
     7
 10
-230.0
 20
510.59544499999993
 30
0.0
 11
360.0
 21
510.59544499999993
 31
0.0
  0
LINE
  5
51
  8
SPEC
  6
CONTINUOUS
 62
     7
 10
-230.0
 20
525.59544499999993
 30
0.0
 11
360.0
 21
525.59544499999993
 31
0.0
  0
LINE
  5
52
  8
SPEC
  6
CONTINUOUS
 62
     7
 10
-230.0
 20
600.59544499999981
 30
0.0
 11
360.0
 21
600.59544499999981
 31
0.0
  0
TEXT
  5
53
  8
SPEC
 62
     7
 10
-96.518948515744
 20
619.28239972084805
 30
0.0
 40
7.6012449999999978
  1
オン/オフスイッチ搭載グースネック
 41
0.7
 11
-96.518948515744
 21
626.883644720848
 31
0.0
 73
     3
  0
LINE
  5
54
  8
SPEC
  6
CONTINUOUS
 62
     7
 10
-230.0
 20
630.5954449999997
 30
0.0
 11
-230.0
 21
510.59544499999993
 31
0.0
  0
TEXT
  5
55
  8
SPEC
 62
     7
 10
-225.0
 20
636.16852499999982
 30
0.0
 40
9.7730468750000004
  1
仕様
 41
0.7
 11
-225.0
 21
645.94157187499979
 31
0.0
 73
     3
  0
LINE
  5
56
  8
SPEC
  6
CONTINUOUS
 62
     7
 10
-100.0
 20
630.5954449999997
 30
0.0
 11
-100.0
 21
510.59544499999993
 31
0.0
  0
LINE
  5
57
  8
SPEC
  6
CONTINUOUS
 62
     7
 10
360.0
 20
630.5954449999997
 30
0.0
 11
360.0
 21
510.59544499999993
 31
0.0
  0
TEXT
  5
58
  8
SPEC
 62
     7
 10
-226.64472446165999
 20
619.22628940417883
 30
0.0
 40
7.6012449999999978
  1
形式
 41
0.7
 11
-226.64472446165999
 21
626.82753440417866
 31
0.0
 73
     3
  0
TEXT
  5
59
  8
SPEC
 62
     7
 10
-227.9431699778535
 20
604.35856635144205
 30
0.0
 40
7.6012449999999978
  1
ローカットフィルター
 41
0.7
 11
-227.9431699778535
 21
611.959811351442
 31
0.0
 73
     3
  0
TEXT
  5
5A
  8
SPEC
 62
     7
 10
-226.921159320138
 20
589.50882579097095
 30
0.0
 40
7.6012449999999978
  1
インピーダンス
 41
0.7
 11
-226.921159320138
 21
597.11007079097089
 31
0.0
 73
     3
  0
TEXT
  5
5B
  8
SPEC
 62
     7
 10
-96.50498508761828
 20
589.32454938189971
 30
0.0
 40
7.6012449999999978
  1
600\U+03A9以下
 41
0.7
 11
-96.50498508761828
 21
596.92579438189955
 31
0.0
 73
     3
  0
TEXT
  5
5C
  8
SPEC
 62
     7
 10
-96.452575306971383
 20
604.29917212319901
 30
0.0
 40
7.6012449999999978
  1
200Hz(6dB/oct）＊ジャンパーで設定
 41
0.7
 11
-96.452575306971383
 21
611.90041712319885
 31
0.0
 73
     3
  0
TEXT
  5
5D
  8
SPEC
 62
     7
 10
-226.68018249534111
 20
574.34752246144524
 30
0.0
 40
7.6012449999999978
  1
電源
 41
0.7
 11
-226.68018249534111
 21
581.94876746144507
 31
0.0
 73
     3
  0
TEXT
  5
5E
  8
SPEC
 62
     7
 10
-97.563934132443535
 20
574.69280672928835
 30
0.0
 40
7.6012449999999978
  1
ファンタム　DC9～52V/3.5mA以下
 41
0.7
 11
-97.563934132443535
 21
582.29405172928841
 31
0.0
 73
     3
  0
TEXT
  5
5F
  8
SPEC
 62
     7
 10
-227.47900268471699
 20
559.5863557103354
 30
0.0
 40
7.6012449999999978
  1
コネクター
 41
0.7
 11
-227.47900268471699
 21
567.18760071033535
 31
0.0
 73
     3
  0
TEXT
  5
60
  8
SPEC
 62
     7
 10
-96.164712075479187
 20
559.10006328678151
 30
0.0
 40
7.6012449999999978
  1
XLR3ピン　オス
 41
0.7
 11
-96.164712075479187
 21
566.70130828678145
 31
0.0
 73
     3
  0
TEXT
  5
61
  8
SPEC
 62
     7
 10
-226.7187687175356
 20
544.61827553734804
 30
0.0
 40
7.6012586805555546
  1
寸法
 41
0.7
 11
-226.7187687175356
 21
552.21953421790363
 31
0.0
 73
     3
  0
TEXT
  5
62
  8
SPEC
 62
     7
 10
-226.59878289645471
 20
529.91969857274739
 30
0.0
 40
7.6012586805555546
  1
重量
 41
0.7
 11
-226.59878289645471
 21
537.52095725330298
 31
0.0
 73
     3
  0
TEXT
  5
63
  8
SPEC
 62
     7
 10
-97.496922713347871
 20
544.46195791376908
 30
0.0
 40
7.6012586805555546
  1
\U+03A619\U+00D7260mm(突起部含まず)
 41
0.7
 11
-97.496922713347871
 21
552.06321659432467
 31
0.0
 73
     3
  0
TEXT
  5
64
  8
SPEC
 62
     7
 10
-96.534906165543504
 20
529.71276752844199
 30
0.0
 40
7.6012586805555546
  1
約140g 、 PS 3 F-LOCK：約56ｇ
 41
0.7
 11
-96.534906165543504
 21
537.31402620899757
 31
0.0
 73
     3
  0
TEXT
  5
65
  8
SPEC
 62
     7
 10
-96.1993052695872
 20
514.5196898750404
 30
0.0
 40
7.6012586805555546
  1
XLRコネクタ ー用埋込パーツ(PS 3 F-LOCK)
 41
0.7
 11
-96.1993052695872
 21
522.12094855559587
 31
0.0
 73
     3
  0
TEXT
  5
66
  8
SPEC
 62
     7
 10
-226.42277455158069
 20
514.99301673414686
 30
0.0
 40
7.6012586805555546
  1
付属品
 41
0.7
 11
-226.42277455158069
 21
522.59427541470245
 31
0.0
 73
     3
  0
TEXT
  5
67
  8
DIMNSIONS
 62
     7
 10
19.999999999999979
 20
-320.326595
 30
0.0
 40
9.7730468750000004
  1
(単位：mm)
 41
0.7
 11
19.999999999999979
 21
-310.55354812500002
 31
0.0
 73
     3
  0
LINE
  5
68
  8
DIMNSIONS
  6
CONTINUOUS
 62
     7
 10
-54.750000000000021
 20
75.000000000360373
 30
0.0
 11
-126.75
 21
75.000000000360373
 31
0.0
  0
LINE
  5
69
  8
DIMNSIONS
  6
CONTINUOUS
 62
     7
 10
-54.750000000000021
 20
96.000000000360359
 30
0.0
 11
-126.75
 21
96.000000000360359
 31
0.0
  0
LINE
  5
6A
  8
DIMNSIONS
  6
CONTINUOUS
 62
     7
 10
-118.75
 20
96.000000000360359
 30
0.0
 11
-118.75
 21
75.000000000360373
 31
0.0
  0
LINE
  5
6B
  8
DIMNSIONS
  6
CONTINUOUS
 62
     7
 10
-118.75
 20
75.000000000360373
 30
0.0
 11
-118.75
 21
55.000000000360359
 31
0.0
  0
LINE
  5
6C
  8
DIMNSIONS
  6
CONTINUOUS
 62
     7
 10
-118.75
 20
75.000000000360373
 30
0.0
 11
-116.069840819399
 21
64.997509765985356
 31
0.0
  0
LINE
  5
6D
  8
DIMNSIONS
  6
CONTINUOUS
 62
     7
 10
-118.75
 20
75.000000000360373
 30
0.0
 11
-121.430159180601
 21
64.997509765985356
 31
0.0
  0
LINE
  5
6E
  8
DIMNSIONS
  6
CONTINUOUS
 62
     7
 10
-118.75
 20
96.000000000360359
 30
0.0
 11
-118.75
 21
116.0000000003603
 31
0.0
  0
LINE
  5
6F
  8
DIMNSIONS
  6
CONTINUOUS
 62
     7
 10
-118.75
 20
96.000000000360359
 30
0.0
 11
-121.430159180601
 21
106.0024902347353
 31
0.0
  0
LINE
  5
70
  8
DIMNSIONS
  6
CONTINUOUS
 62
     7
 10
-118.75
 20
96.000000000360359
 30
0.0
 11
-116.069840819399
 21
106.0024902347353
 31
0.0
  0
TEXT
  5
71
  8
DIMNSIONS
 62
     7
 10
-122.7255555555556
 20
78.444444444804788
 30
0.0
 40
10.85894097222222
  1
21
 50
90.0
 41
0.7
 11
-133.58449652777779
 21
78.444444444804788
 31
0.0
 73
     3
  0
LINE
  5
72
  8
DIMNSIONS
  6
CONTINUOUS
 62
     7
 10
-41.665459451017412
 20
92.524802016965467
 30
0.0
 11
-31.100000000000009
 21
109.2000000003603
 31
0.0
  0
LINE
  5
73
  8
DIMNSIONS
  6
CONTINUOUS
 62
     7
 10
-41.665459451017412
 20
92.524802016965467
 30
0.0
 11
-38.465483444198938
 21
102.37331549250651
 31
0.0
  0
LINE
  5
74
  8
DIMNSIONS
  6
CONTINUOUS
 62
     7
 10
-41.665459451017412
 20
92.524802016965467
 30
0.0
 11
-33.969942199841398
 21
99.453876872888145
 31
0.0
  0
LINE
  5
75
  8
DIMNSIONS
  6
CONTINUOUS
 62
     7
 10
-31.100000000000009
 20
109.2000000003603
 30
0.0
 11
5.12222222222222
 21
109.2000000003603
 31
0.0
  0
TEXT
  5
76
  8
DIMNSIONS
 62
     7
 10
-23.100000000000009
 20
113.17555555591591
 30
0.0
 40
10.85894097222222
  1
\U+03C619
 41
0.7
 11
-23.100000000000009
 21
124.03449652813811
 31
0.0
 73
     3
  0
LINE
  5
77
  8
DIMNSIONS
  6
CONTINUOUS
 62
     7
 10
-77.250000000000014
 20
-20.75
 30
0.0
 11
-101.75
 21
-20.75
 31
0.0
  0
LINE
  5
78
  8
DIMNSIONS
  6
CONTINUOUS
 62
     7
 10
-77.250000000000014
 20
-18.75
 30
0.0
 11
-101.75
 21
-18.75
 31
0.0
  0
LINE
  5
79
  8
DIMNSIONS
  6
CONTINUOUS
 62
     7
 10
-93.75
 20
-18.75
 30
0.0
 11
-93.75
 21
-20.75
 31
0.0
  0
LINE
  5
7A
  8
DIMNSIONS
  6
CONTINUOUS
 62
     7
 10
-93.75
 20
-20.75
 30
0.0
 11
-93.75
 21
-40.305555555555529
 31
0.0
  0
LINE
  5
7B
  8
DIMNSIONS
  6
CONTINUOUS
 62
     7
 10
-93.75
 20
-20.75
 30
0.0
 11
-91.069840819399033
 21
-30.752490234374989
 31
0.0
  0
LINE
  5
7C
  8
DIMNSIONS
  6
CONTINUOUS
 62
     7
 10
-93.75
 20
-20.75
 30
0.0
 11
-96.430159180600995
 21
-30.752490234374989
 31
0.0
  0
LINE
  5
7D
  8
DIMNSIONS
  6
CONTINUOUS
 62
     7
 10
-93.75
 20
-18.75
 30
0.0
 11
-93.75
 21
1.25
 31
0.0
  0
LINE
  5
7E
  8
DIMNSIONS
  6
CONTINUOUS
 62
     7
 10
-93.75
 20
-18.75
 30
0.0
 11
-96.430159180600995
 21
-8.7475097656250114
 31
0.0
  0
LINE
  5
7F
  8
DIMNSIONS
  6
CONTINUOUS
 62
     7
 10
-93.75
 20
-18.75
 30
0.0
 11
-91.069840819399033
 21
-8.7475097656250114
 31
0.0
  0
TEXT
  5
80
  8
DIMNSIONS
 62
     7
 10
-97.725555555555545
 20
-40.305555555555529
 30
0.0
 40
10.85894097222222
  1
2
 50
90.0
 41
0.7
 11
-108.5844965277777
 21
-40.305555555555529
 31
0.0
 73
     3
  0
LINE
  5
81
  8
DIMNSIONS
  6
CONTINUOUS
 62
     7
 10
-77.250000000000014
 20
-18.75
 30
0.0
 11
-101.75
 21
-18.75
 31
0.0
  0
LINE
  5
82
  8
DIMNSIONS
  6
CONTINUOUS
 62
     7
 10
-62.600000000000009
 20
14.25
 30
0.0
 11
-101.75
 21
14.25
 31
0.0
  0
LINE
  5
83
  8
DIMNSIONS
  6
CONTINUOUS
 62
     7
 10
-93.75
 20
-18.75
 30
0.0
 11
-93.75
 21
14.25
 31
0.0
  0
LINE
  5
84
  8
DIMNSIONS
  6
CONTINUOUS
 62
     7
 10
-93.75
 20
-18.75
 30
0.0
 11
-96.430159180600995
 21
-8.7475097656250114
 31
0.0
  0
LINE
  5
85
  8
DIMNSIONS
  6
CONTINUOUS
 62
     7
 10
-93.75
 20
-18.75
 30
0.0
 11
-91.069840819399033
 21
-8.7475097656250114
 31
0.0
  0
LINE
  5
86
  8
DIMNSIONS
  6
CONTINUOUS
 62
     7
 10
-93.75
 20
14.25
 30
0.0
 11
-91.069840819399033
 21
4.2475097656250114
 31
0.0
  0
LINE
  5
87
  8
DIMNSIONS
  6
CONTINUOUS
 62
     7
 10
-93.75
 20
14.25
 30
0.0
 11
-96.430159180600995
 21
4.2475097656250114
 31
0.0
  0
TEXT
  5
88
  8
DIMNSIONS
 62
     7
 10
-97.725555555555545
 20
-9.3055555555555465
 30
0.0
 40
10.85894097222222
  1
33
 50
90.0
 41
0.7
 11
-108.5844965277777
 21
-9.3055555555555447
 31
0.0
 73
     3
  0
LINE
  5
89
  8
DIMNSIONS
  6
CONTINUOUS
 62
     7
 10
-59.649999999999991
 20
-56.25
 30
0.0
 11
-126.75
 21
-56.25
 31
0.0
  0
LINE
  5
8A
  8
DIMNSIONS
  6
CONTINUOUS
 62
     7
 10
-62.600000000000009
 20
14.25
 30
0.0
 11
-126.75
 21
14.25
 31
0.0
  0
LINE
  5
8B
  8
DIMNSIONS
  6
CONTINUOUS
 62
     7
 10
-118.75
 20
-56.25
 30
0.0
 11
-118.75
 21
14.25
 31
0.0
  0
LINE
  5
8C
  8
DIMNSIONS
  6
CONTINUOUS
 62
     7
 10
-118.75
 20
-56.25
 30
0.0
 11
-121.430159180601
 21
-46.247509765625011
 31
0.0
  0
LINE
  5
8D
  8
DIMNSIONS
  6
CONTINUOUS
 62
     7
 10
-118.75
 20
-56.25
 30
0.0
 11
-116.069840819399
 21
-46.247509765625011
 31
0.0
  0
LINE
  5
8E
  8
DIMNSIONS
  6
CONTINUOUS
 62
     7
 10
-118.75
 20
14.25
 30
0.0
 11
-116.069840819399
 21
4.2475097656250114
 31
0.0
  0
LINE
  5
8F
  8
DIMNSIONS
  6
CONTINUOUS
 62
     7
 10
-118.75
 20
14.25
 30
0.0
 11
-121.430159180601
 21
4.2475097656250114
 31
0.0
  0
TEXT
  5
90
  8
DIMNSIONS
 62
     7
 10
-122.7255555555556
 20
-35.111111111111093
 30
0.0
 40
10.85894097222222
  1
70.5
 50
90.0
 41
0.7
 11
-133.58449652777779
 21
-35.111111111111093
 31
0.0
 73
     3
  0
LINE
  5
91
  8
DIMNSIONS
  6
CONTINUOUS
 62
     7
 10
-57.750000000000021
 20
-30.949999999999989
 30
0.0
 11
-57.750000000000021
 21
-91.25
 31
0.0
  0
LINE
  5
92
  8
DIMNSIONS
  6
CONTINUOUS
 62
     7
 10
-35.750000000000007
 20
-30.949999999999989
 30
0.0
 11
-35.750000000000007
 21
-91.25
 31
0.0
  0
LINE
  5
93
  8
DIMNSIONS
  6
CONTINUOUS
 62
     7
 10
-35.750000000000007
 20
-83.250000000000014
 30
0.0
 11
-57.750000000000021
 21
-83.250000000000014
 31
0.0
  0
LINE
  5
94
  8
DIMNSIONS
  6
CONTINUOUS
 62
     7
 10
-57.750000000000021
 20
-83.250000000000014
 30
0.0
 11
-77.750000000000014
 21
-83.250000000000014
 31
0.0
  0
LINE
  5
95
  8
DIMNSIONS
  6
CONTINUOUS
 62
     7
 10
-57.750000000000021
 20
-83.250000000000014
 30
0.0
 11
-67.752490234375003
 21
-85.930159180600981
 31
0.0
  0
LINE
  5
96
  8
DIMNSIONS
  6
CONTINUOUS
 62
     7
 10
-57.750000000000021
 20
-83.250000000000014
 30
0.0
 11
-67.752490234375003
 21
-80.569840819399005
 31
0.0
  0
LINE
  5
97
  8
DIMNSIONS
  6
CONTINUOUS
 62
     7
 10
-35.750000000000007
 20
-83.250000000000014
 30
0.0
 11
-15.750000000000011
 21
-83.250000000000014
 31
0.0
  0
LINE
  5
98
  8
DIMNSIONS
  6
CONTINUOUS
 62
     7
 10
-35.750000000000007
 20
-83.250000000000014
 30
0.0
 11
-25.747509765625011
 21
-80.569840819399005
 31
0.0
  0
LINE
  5
99
  8
DIMNSIONS
  6
CONTINUOUS
 62
     7
 10
-35.750000000000007
 20
-83.250000000000014
 30
0.0
 11
-25.747509765625011
 21
-85.930159180600981
 31
0.0
  0
TEXT
  5
9A
  8
DIMNSIONS
 62
     7
 10
-53.805555555555557
 20
-79.274444444444441
 30
0.0
 40
10.85894097222222
  1
22
 41
0.7
 11
-53.805555555555557
 21
-68.415503472222213
 31
0.0
 73
     3
  0
LINE
  5
9B
  8
DIMNSIONS
  6
CONTINUOUS
 62
     7
 10
-34.823001647872701
 20
-124.6714141190631
 30
0.0
 11
-14.5
 21
-92.16227848559997
 31
0.0
  0
LINE
  5
9C
  8
DIMNSIONS
  6
CONTINUOUS
 62
     7
 10
-34.823001647872701
 20
-124.6714141190631
 30
0.0
 11
-31.623025641054209
 21
-114.8229006435221
 31
0.0
  0
LINE
  5
9D
  8
DIMNSIONS
  6
CONTINUOUS
 62
     7
 10
-34.823001647872701
 20
-124.6714141190631
 30
0.0
 11
-27.127484396696701
 21
-117.74233926314049
 31
0.0
  0
LINE
  5
9E
  8
DIMNSIONS
  6
CONTINUOUS
 62
     7
 10
-14.5
 20
-92.16227848559997
 30
0.0
 11
21.722222222222211
 21
-92.16227848559997
 31
0.0
  0
TEXT
  5
9F
  8
DIMNSIONS
 62
     7
 10
-6.5
 20
-88.186722930044411
 30
0.0
 40
10.85894097222222
  1
\U+03C645
 41
0.7
 11
-6.5
 21
-77.327781957822182
 31
0.0
 73
     3
  0
LINE
  5
A0
  8
DIMNSIONS
  6
CONTINUOUS
 62
     7
 10
-30.49221485149404
 20
-151.2975347884333
 30
0.0
 11
-6.5000000000000284
 21
-117.6622784856
 31
0.0
  0
LINE
  5
A1
  8
DIMNSIONS
  6
CONTINUOUS
 62
     7
 10
-30.49221485149404
 20
-151.2975347884333
 30
0.0
 11
-26.781192930265149
 21
-141.62999216260101
 31
0.0
  0
LINE
  5
A2
  8
DIMNSIONS
  6
CONTINUOUS
 62
     7
 10
-30.49221485149404
 20
-151.2975347884333
 30
0.0
 11
-22.444604280792721
 21
-144.78070824290799
 31
0.0
  0
LINE
  5
A3
  8
DIMNSIONS
  6
CONTINUOUS
 62
     7
 10
-6.5000000000000284
 20
-117.6622784856
 30
0.0
 11
50.88888888888885
 21
-117.6622784856
 31
0.0
  0
TEXT
  5
A4
  8
DIMNSIONS
 62
     7
 10
1.49999999999997
 20
-113.6867229300444
 30
0.0
 40
10.85894097222222
  1
3-\U+03C63.2
 41
0.7
 11
1.4999999999999709
 21
-102.8277819578222
 31
0.0
 73
     3
  0
LINE
  5
A5
  8
DIMNSIONS
  6
CONTINUOUS
 62
     7
 10
-64.250000000000014
 20
118.75
 30
0.0
 11
-101.75
 21
118.75
 31
0.0
  0
LINE
  5
A6
  8
DIMNSIONS
  6
CONTINUOUS
 62
     7
 10
-59.500000000000021
 20
273.75
 30
0.0
 11
-101.75
 21
273.75
 31
0.0
  0
LINE
  5
A7
  8
DIMNSIONS
  6
CONTINUOUS
 62
     7
 10
-93.75
 20
118.75
 30
0.0
 11
-93.75
 21
273.75
 31
0.0
  0
LINE
  5
A8
  8
DIMNSIONS
  6
CONTINUOUS
 62
     7
 10
-93.75
 20
118.75
 30
0.0
 11
-96.430159180600995
 21
128.75249023437499
 31
0.0
  0
LINE
  5
A9
  8
DIMNSIONS
  6
CONTINUOUS
 62
     7
 10
-93.75
 20
118.75
 30
0.0
 11
-91.069840819399033
 21
128.75249023437499
 31
0.0
  0
LINE
  5
AA
  8
DIMNSIONS
  6
CONTINUOUS
 62
     7
 10
-93.75
 20
273.75
 30
0.0
 11
-91.069840819399033
 21
263.74750976562501
 31
0.0
  0
LINE
  5
AB
  8
DIMNSIONS
  6
CONTINUOUS
 62
     7
 10
-93.75
 20
273.75
 30
0.0
 11
-96.430159180600995
 21
263.74750976562501
 31
0.0
  0
TEXT
  5
AC
  8
DIMNSIONS
 62
     7
 10
-97.725555555555573
 20
185.6666666666666
 30
0.0
 40
10.85894097222222
  1
155
 50
90.0
 41
0.7
 11
-108.5844965277778
 21
185.6666666666666
 31
0.0
 73
     3
  0
LINE
  5
AD
  8
DIMNSIONS
  6
CONTINUOUS
 62
     7
 10
-42.289971116605422
 20
404.1451962299127
 30
0.0
 11
-31.250000000000011
 21
417.49999999999989
 31
0.0
  0
LINE
  5
AE
  8
DIMNSIONS
  6
CONTINUOUS
 62
     7
 10
-42.289971116605422
 20
404.1451962299127
 30
0.0
 11
-37.913615374912247
 21
413.53032140458561
 31
0.0
  0
LINE
  5
AF
  8
DIMNSIONS
  6
CONTINUOUS
 62
     7
 10
-42.289971116605422
 20
404.1451962299127
 30
0.0
 11
-33.807373280964882
 21
410.0847751780297
 31
0.0
  0
LINE
  5
B0
  8
DIMNSIONS
  6
CONTINUOUS
 62
     7
 10
-31.250000000000011
 20
417.49999999999989
 30
0.0
 11
4.9722222222222143
 21
417.49999999999989
 31
0.0
  0
TEXT
  5
B1
  8
DIMNSIONS
 62
     7
 10
-23.250000000000011
 20
421.47555555555539
 30
0.0
 40
10.85894097222222
  1
\U+03C614
 41
0.7
 11
-23.250000000000011
 21
432.33449652777767
 31
0.0
 73
     3
  0
LINE
  5
B2
  8
DIMNSIONS
  6
CONTINUOUS
 62
     7
 10
156.2136241813179
 20
-128.74999999986059
 30
0.0
 11
156.2136241813179
 21
-99.999999999860634
 31
0.0
  0
LINE
  5
B3
  8
DIMNSIONS
  6
CONTINUOUS
 62
     7
 10
143.22324312455129
 20
-151.24999999986059
 30
0.0
 11
118.3250127657487
 21
-165.62499999986059
 31
0.0
  0
LINE
  5
B4
  8
DIMNSIONS
  6
CONTINUOUS
 62
     7
 10
169.31362418131781
 20
-151.31328852624469
 30
0.0
 11
194.1022355968868
 21
-165.62499999986059
 31
0.0
  0
LINE
  5
B5
  8
DIMNSIONS
  6
CONTINUOUS
 62
     7
 10
-56.250000000000021
 20
118.75
 30
0.0
 11
-37.250000000000007
 21
118.75
 31
0.0
  0
LINE
  5
B6
  8
DIMNSIONS
  6
CONTINUOUS
 62
     7
 10
-64.250000000000014
 20
118.75
 30
0.0
 11
-126.75
 21
118.75
 31
0.0
  0
LINE
  5
B7
  8
DIMNSIONS
  6
CONTINUOUS
 62
     7
 10
-61.750000000000021
 20
378.75
 30
0.0
 11
-126.75
 21
378.75
 31
0.0
  0
LINE
  5
B8
  8
DIMNSIONS
  6
CONTINUOUS
 62
     7
 10
-118.75
 20
118.75
 30
0.0
 11
-118.75
 21
378.75
 31
0.0
  0
LINE
  5
B9
  8
DIMNSIONS
  6
CONTINUOUS
 62
     7
 10
-118.75
 20
118.75
 30
0.0
 11
-121.430159180601
 21
128.75249023437499
 31
0.0
  0
LINE
  5
BA
  8
DIMNSIONS
  6
CONTINUOUS
 62
     7
 10
-118.75
 20
118.75
 30
0.0
 11
-116.069840819399
 21
128.75249023437499
 31
0.0
  0
LINE
  5
BB
  8
DIMNSIONS
  6
CONTINUOUS
 62
     7
 10
-118.75
 20
378.75
 30
0.0
 11
-116.069840819399
 21
368.7475097656249
 31
0.0
  0
LINE
  5
BC
  8
DIMNSIONS
  6
CONTINUOUS
 62
     7
 10
-118.75
 20
378.75
 30
0.0
 11
-121.430159180601
 21
368.7475097656249
 31
0.0
  0
TEXT
  5
BD
  8
DIMNSIONS
 62
     7
 10
-122.7255555555556
 20
238.16666666666671
 30
0.0
 40
10.85894097222222
  1
260
 50
90.0
 41
0.7
 11
-133.58449652777779
 21
238.16666666666671
 31
0.0
 73
     3
  0
ARC
  5
BE
  8
DIMNSIONS
  6
CONTINUOUS
 62
     7
 10
156.2136241813179
 20
-143.74999999986059
 30
0.0
 40
37.50119575390729
 50
210.0
 51
329.99999999999977
  0
LINE
  5
BF
  8
DIMNSIONS
  6
CONTINUOUS
 62
     7
 10
188.69061237649461
 20
-162.5005978768144
 30
0.0
 11
185.83629387216331
 21
-172.45478945614209
 31
0.0
  0
LINE
  5
C0
  8
DIMNSIONS
  6
CONTINUOUS
 62
     7
 10
188.69061237649461
 20
-162.5005978768144
 30
0.0
 11
181.2416042515878
 21
-169.69402140648361
 31
0.0
  0
LINE
  5
C1
  8
DIMNSIONS
  6
CONTINUOUS
 62
     7
 10
123.736635986141
 20
-162.5005978768142
 30
0.0
 11
130.9300595158102
 21
-169.94960600172109
 31
0.0
  0
LINE
  5
C2
  8
DIMNSIONS
  6
CONTINUOUS
 62
     7
 10
123.736635986141
 20
-162.5005978768142
 30
0.0
 11
126.2418194405618
 21
-172.5483399108148
 31
0.0
  0
TEXT
  5
C3
  8
DIMNSIONS
 62
     7
 10
138.5747352924289
 20
-195.3867513093235
 30
0.0
 40
10.85894097222222
  1
120\U+00B0
 41
0.7
 11
138.5747352924289
 21
-184.5278103371013
 31
0.0
 73
     3
  0
ARC
  5
C4
  8
DIMNSIONS
  6
CONTINUOUS
 62
     7
 10
156.2136241813179
 20
-143.74999999986059
 30
0.0
 40
37.504196233814703
 50
90.0
 51
210.0
  0
LINE
  5
C5
  8
DIMNSIONS
  6
CONTINUOUS
 62
     7
 10
123.7340374943177
 20
-162.50209811676791
 30
0.0
 11
116.4117064405436
 21
-155.1797670629939
 31
0.0
  0
LINE
  5
C6
  8
DIMNSIONS
  6
CONTINUOUS
 62
     7
 10
123.7340374943177
 20
-162.50209811676791
 30
0.0
 11
121.05387831371669
 21
-152.49960788239289
 31
0.0
  0
LINE
  5
C7
  8
DIMNSIONS
  6
CONTINUOUS
 62
     7
 10
156.2136241813179
 20
-106.2458037660459
 30
0.0
 11
146.21113394694279
 21
-108.92596294664691
 31
0.0
  0
LINE
  5
C8
  8
DIMNSIONS
  6
CONTINUOUS
 62
     7
 10
156.2136241813179
 20
-106.2458037660459
 30
0.0
 11
146.21113394694279
 21
-103.5656445854449
 31
0.0
  0
TEXT
  5
C9
  8
DIMNSIONS
 62
     7
 10
111.4716609446057
 20
-138.2858499774843
 30
0.0
 40
10.85894097222222
  1
120\U+00B0
 50
60.0
 41
0.7
 11
102.0675422044656
 21
-132.85637949137319
 31
0.0
 73
     3
  0
ARC
  5
CA
  8
DIMNSIONS
  6
CONTINUOUS
 62
     7
 10
156.2136241813179
 20
-143.74999999986059
 30
0.0
 40
37.50591420643341
 50
329.99999999999989
 51
90.0
  0
LINE
  5
CB
  8
DIMNSIONS
  6
CONTINUOUS
 62
     7
 10
156.2136241813179
 20
-106.2440857934272
 30
0.0
 11
166.21611441569291
 21
-103.56392661282619
 31
0.0
  0
LINE
  5
CC
  8
DIMNSIONS
  6
CONTINUOUS
 62
     7
 10
156.2136241813179
 20
-106.2440857934272
 30
0.0
 11
166.21611441569291
 21
-108.9242449740281
 31
0.0
  0
LINE
  5
CD
  8
DIMNSIONS
  6
CONTINUOUS
 62
     7
 10
188.69469867624881
 20
-162.50295710307739
 30
0.0
 11
191.54901718058019
 21
-152.54876552374969
 31
0.0
  0
LINE
  5
CE
  8
DIMNSIONS
  6
CONTINUOUS
 62
     7
 10
188.69469867624881
 20
-162.50295710307739
 30
0.0
 11
196.1437068011557
 21
-155.3095335734082
 31
0.0
  0
TEXT
  5
CF
  8
DIMNSIONS
 62
     7
 10
183.31818633707189
 20
-107.7335392465573
 30
0.0
 40
10.85894097222222
  1
120\U+00B0
 50
300.0
 41
0.7
 11
192.7223050772121
 21
-102.3040687604462
 31
0.0
 73
     3
  0
LINE
  5
D0
  8
DIMNSIONS
  6
CONTINUOUS
 62
     7
 10
273.21362418131758
 20
-154.74999999986059
 30
0.0
 11
235.71362418131761
 21
-154.74999999986059
 31
0.0
  0
LINE
  5
D1
  8
DIMNSIONS
  6
CONTINUOUS
 62
     7
 10
273.21362418131758
 20
-132.74999999986059
 30
0.0
 11
235.71362418131761
 21
-132.74999999986059
 31
0.0
  0
LINE
  5
D2
  8
DIMNSIONS
  6
CONTINUOUS
 62
     7
 10
243.71362418131761
 20
-132.74999999986059
 30
0.0
 11
243.71362418131761
 21
-154.74999999986059
 31
0.0
  0
LINE
  5
D3
  8
DIMNSIONS
  6
CONTINUOUS
 62
     7
 10
243.71362418131761
 20
-154.74999999986059
 30
0.0
 11
243.71362418131761
 21
-174.74999999986059
 31
0.0
  0
LINE
  5
D4
  8
DIMNSIONS
  6
CONTINUOUS
 62
     7
 10
243.71362418131761
 20
-154.74999999986059
 30
0.0
 11
246.39378336191871
 21
-164.75249023423561
 31
0.0
  0
LINE
  5
D5
  8
DIMNSIONS
  6
CONTINUOUS
 62
     7
 10
243.71362418131761
 20
-154.74999999986059
 30
0.0
 11
241.0334650007166
 21
-164.75249023423561
 31
0.0
  0
LINE
  5
D6
  8
DIMNSIONS
  6
CONTINUOUS
 62
     7
 10
243.71362418131761
 20
-132.74999999986059
 30
0.0
 11
243.71362418131761
 21
-112.74999999986061
 31
0.0
  0
LINE
  5
D7
  8
DIMNSIONS
  6
CONTINUOUS
 62
     7
 10
243.71362418131761
 20
-132.74999999986059
 30
0.0
 11
241.0334650007166
 21
-122.7475097654856
 31
0.0
  0
LINE
  5
D8
  8
DIMNSIONS
  6
CONTINUOUS
 62
     7
 10
243.71362418131761
 20
-132.74999999986059
 30
0.0
 11
246.39378336191871
 21
-122.7475097654856
 31
0.0
  0
TEXT
  5
D9
  8
DIMNSIONS
 62
     7
 10
239.73806862576211
 20
-150.80555555541611
 30
0.0
 40
10.85894097222222
  1
22
 50
90.0
 41
0.7
 11
228.8791276535398
 21
-150.80555555541611
 31
0.0
 73
     3
  0
LINE
  5
DA
  8
DIMNSIONS
  6
CONTINUOUS
 62
     7
 10
292.4663833269031
 20
-129.7009640325266
 30
0.0
 11
306.16362418131769
 21
-112.5999999998607
 31
0.0
  0
LINE
  5
DB
  8
DIMNSIONS
  6
CONTINUOUS
 62
     7
 10
292.4663833269031
 20
-129.7009640325266
 30
0.0
 11
296.6782795094062
 21
-120.24089031875759
 31
0.0
  0
LINE
  5
DC
  8
DIMNSIONS
  6
CONTINUOUS
 62
     7
 10
292.4663833269031
 20
-129.7009640325266
 30
0.0
 11
300.844029275938
 21
-123.61424796598089
 31
0.0
  0
LINE
  5
DD
  8
DIMNSIONS
  6
CONTINUOUS
 62
     7
 10
306.16362418131769
 20
-112.5999999998607
 30
0.0
 11
342.38584640353992
 21
-112.5999999998607
 31
0.0
  0
TEXT
  5
DE
  8
DIMNSIONS
 62
     7
 10
314.16362418131769
 20
-108.6244444443051
 30
0.0
 40
10.85894097222222
  1
\U+03C636
 41
0.7
 11
314.16362418131769
 21
-97.765503472082884
 31
0.0
 73
     3
  0
TEXT
  5
DF
  8
DATA
 62
     7
 10
300.0
 20
-324.88099499999993
 30
0.0
 40
9.7730468750000004
  1
GN 15 ESP
 41
0.7
 11
300.0
 21
-315.10794812500001
 31
0.0
 73
     3
  0
TEXT
  5
E0
  8
DATA
 62
     7
 10
300.0
 20
-295.88099499999993
 30
0.0
 40
9.7730468750000004
  1
AKG
 41
0.7
 11
300.0
 21
-286.10794812500001
 31
0.0
 73
     3
  0
TEXT
  5
E1
  8
DATA
 62
     7
 10
290.0
 20
-309.7888198
 30
0.0
 40
6.5153748437499992
  1
グースネック
 41
0.7
 11
290.0
 21
-303.27344495624999
 31
0.0
 73
     3
  0
TEXT
  5
E2
  8
DATA
 62
     7
 10
-220.0
 20
-352.45255500000007
 30
0.0
 40
6.5153645833333318
  1
仕様および外観は予告なく変更されることがありますので、ご了承ください。
 41
0.7
 11
-220.0
 21
-345.93719041666668
 31
0.0
 73
     3
  0
LINE
  5
E3
  8
DATA
  6
CONTINUOUS
 62
     7
 10
-56.250000000000021
 20
118.75
 30
0.0
 11
-56.250000000000021
 21
223.7854187625849
 31
0.0
  0
LINE
  5
E4
  8
DATA
  6
CONTINUOUS
 62
     7
 10
-37.250000000000007
 20
118.75
 30
0.0
 11
-37.250000000000007
 21
223.7854187625849
 31
0.0
  0
CIRCLE
  5
E5
  8
DATA
  6
CONTINUOUS
 62
     7
 10
-46.750000000000021
 20
135.75
 30
0.0
 40
2.3000000000000109
  0
LINE
  5
E6
  8
DATA
  6
CONTINUOUS
 62
     7
 10
-47.60842879728024
 20
134.89157120271969
 30
0.0
 11
-45.891571202719753
 21
136.60842879728031
 31
0.0
  0
LINE
  5
E7
  8
DATA
  6
CONTINUOUS
 62
     7
 10
-45.891571202719753
 20
134.89157120271969
 30
0.0
 11
-47.608428797280247
 21
136.60842879728031
 31
0.0
  0
TEXT
  5
E8
  8
DATA
 62
     7
 10
-53.036237334734572
 20
120.5489040829026
 30
0.0
 40
2.0849166666666661
  1
GN 30 ESP
 41
0.7
 11
-53.036237334734572
 21
122.6338207495693
 31
0.0
 73
     3
  0
ARC
  5
E9
  8
DATA
  6
CONTINUOUS
 62
     7
 10
-46.750000000000021
 20
174.78375561145731
 30
0.0
 40
3.4000000000000048
 50
359.9999999999996
 51
180.0000000000004
  0
ARC
  5
EA
  8
DATA
  6
CONTINUOUS
 62
     7
 10
-46.750000000000021
 20
169.58375561145721
 30
0.0
 40
3.4000000000000048
 50
179.9999999999996
 51
0.0000000000004547
  0
LINE
  5
EB
  8
DATA
  6
CONTINUOUS
 62
     7
 10
-50.15000000000002
 20
169.58375561145721
 30
0.0
 11
-50.15000000000002
 21
174.7837556114572
 31
0.0
  0
LINE
  5
EC
  8
DATA
  6
CONTINUOUS
 62
     7
 10
-43.350000000000001
 20
169.58375561145721
 30
0.0
 11
-43.350000000000001
 21
174.7837556114572
 31
0.0
  0
TEXT
  5
ED
  8
DATA
 62
     7
 10
-50.281750837579402
 20
162.20372894479061
 30
0.0
 40
2.0849166666666661
  1
ON/OFF
 41
0.7
 11
-50.281750837579402
 21
164.2886456114573
 31
0.0
 73
     3
  0
TEXT
  5
EE
  8
DATA
 62
     7
 10
-55.020171746286039
 20
158.8346599934066
 30
0.0
 40
2.0849166666666661
  1
PROGRAMMABLE
 41
0.7
 11
-55.020171746286039
 21
160.91957666007329
 31
0.0
 73
     3
  0
LINE
  5
EF
  8
DATA
  6
CONTINUOUS
 62
     7
 10
-51.500000000000021
 20
273.75
 30
0.0
 11
-42.000000000000007
 21
273.75
 31
0.0
  0
LINE
  5
F0
  8
DATA
  6
CONTINUOUS
 62
     7
 10
-51.500000000000021
 20
263.75
 30
0.0
 11
-51.500000000000021
 21
273.75
 31
0.0
  0
ARC
  5
F1
  8
DATA
  6
CONTINUOUS
 62
     7
 10
-168.77797297297101
 20
263.92563063063039
 30
0.0
 40
117.27810448147309
 50
347.0754916853241
 51
359.91419627990967
  0
ARC
  5
F2
  8
DATA
  6
CONTINUOUS
 62
     7
 10
32.904431482433992
 20
217.83425833321701
 30
0.0
 40
89.604113614228197
 50
167.0595793513568
 51
171.35764532212571
  0
ARC
  5
F3
  8
DATA
  6
CONTINUOUS
 62
     7
 10
-6.2499999999994174
 20
223.7854187625849
 30
0.0
 40
50.000000000000597
 50
171.35764532212579
 51
180.0
  0
LINE
  5
F4
  8
DATA
  6
CONTINUOUS
 62
     7
 10
-42.000000000000007
 20
263.75
 30
0.0
 11
-42.000000000000007
 21
273.75
 31
0.0
  0
ARC
  5
F5
  8
DATA
  6
CONTINUOUS
 62
     7
 10
75.277972972970986
 20
263.92563063063039
 30
0.0
 40
117.27810448147309
 50
180.08580372009021
 51
192.9245083146759
  0
ARC
  5
F6
  8
DATA
  6
CONTINUOUS
 62
     7
 10
-126.40443148243401
 20
217.83425833321701
 30
0.0
 40
89.604113614228197
 50
8.6423546778743336
 51
12.940420648643149
  0
ARC
  5
F7
  8
DATA
  6
CONTINUOUS
 62
     7
 10
-87.250000000000554
 20
223.7854187625849
 30
0.0
 40
50.000000000000568
 50
0.0
 51
8.6423546778742093
  0
LINE
  5
F8
  8
DATA
  6
CONTINUOUS
 62
     7
 10
-51.500000000000021
 20
269.75
 30
0.0
 11
-42.000000000000007
 21
269.75
 31
0.0
  0
LINE
  5
F9
  8
DATA
  6
CONTINUOUS
 62
     7
 10
-51.500000000000021
 20
267.75
 30
0.0
 11
-42.000000000000007
 21
267.75
 31
0.0
  0
LINE
  5
FA
  8
DATA
  6
CONTINUOUS
 62
     7
 10
-51.500000000000021
 20
265.25
 30
0.0
 11
-42.000000000000007
 21
265.25
 31
0.0
  0
LINE
  5
FB
  8
DATA
  6
CONTINUOUS
 62
     7
 10
-51.500000000000021
 20
263.25
 30
0.0
 11
-42.000000000000007
 21
263.25
 31
0.0
  0
LINE
  5
FC
  8
DATA
  6
CONTINUOUS
 62
     7
 10
-50.625000000000021
 20
273.75
 30
0.0
 11
-50.625000000000021
 21
328.75
 31
0.0
  0
LINE
  5
FD
  8
DATA
  6
CONTINUOUS
 62
     7
 10
-42.875000000000007
 20
273.75
 30
0.0
 11
-42.875000000000007
 21
328.75
 31
0.0
  0
LINE
  5
FE
  8
DATA
  6
CONTINUOUS
 62
     7
 10
-51.500000000000021
 20
328.75
 30
0.0
 11
-42.000000000000007
 21
328.75
 31
0.0
  0
LINE
  5
FF
  8
DATA
  6
CONTINUOUS
 62
     7
 10
-53.750000000000021
 20
378.75
 30
0.0
 11
-39.750000000000007
 21
378.75
 31
0.0
  0
LINE
  5
100
  8
DATA
  6
CONTINUOUS
 62
     7
 10
-51.500000000000021
 20
328.75
 30
0.0
 11
-51.500000000000021
 21
338.75
 31
0.0
  0
LINE
  5
101
  8
DATA
  6
CONTINUOUS
 62
     7
 10
-42.000000000000007
 20
328.75
 30
0.0
 11
-42.000000000000007
 21
338.75
 31
0.0
  0
LINE
  5
102
  8
DATA
  6
CONTINUOUS
 62
     7
 10
-51.500000000000021
 20
338.75
 30
0.0
 11
-51.500000000000021
 21
350.29999999999939
 31
0.0
  0
ARC
  5
103
  8
DATA
  6
CONTINUOUS
 62
     7
 10
-196.29312796206261
 20
342.64976303317769
 30
0.0
 40
144.99508967784661
 50
3.0244466749958598
 51
8.1769856059160038
  0
ARC
  5
104
  8
DATA
  6
CONTINUOUS
 62
     7
 10
-3.2804672068828751
 20
370.38417825401677
 30
0.0
 40
50.000000002473357
 50
181.98252386108439
 51
188.1769856056101
  0
LINE
  5
105
  8
DATA
  6
CONTINUOUS
 62
     7
 10
-42.000000000000007
 20
338.75
 30
0.0
 11
-42.000000000000007
 21
350.29999999999939
 31
0.0
  0
ARC
  5
106
  8
DATA
  6
CONTINUOUS
 62
     7
 10
102.7931279620626
 20
342.64976303317769
 30
0.0
 40
144.99508967784661
 50
171.823014394084
 51
176.97555332500411
  0
ARC
  5
107
  8
DATA
  6
CONTINUOUS
 62
     7
 10
-90.219532793117153
 20
370.38417825401677
 30
0.0
 40
50.000000002473357
 50
351.82301439438982
 51
358.0174761389157
  0
LINE
  5
108
  8
DATA
  6
CONTINUOUS
 62
     7
 10
-51.500000000000021
 20
332.75
 30
0.0
 11
-42.000000000000007
 21
332.75
 31
0.0
  0
LINE
  5
109
  8
DATA
  6
CONTINUOUS
 62
     7
 10
-51.500000000000021
 20
334.75
 30
0.0
 11
-42.000000000000007
 21
334.75
 31
0.0
  0
LINE
  5
10A
  8
DATA
  6
CONTINUOUS
 62
     7
 10
-51.500000000000021
 20
337.25
 30
0.0
 11
-42.000000000000007
 21
337.25
 31
0.0
  0
LINE
  5
10B
  8
DATA
  6
CONTINUOUS
 62
     7
 10
-51.500000000000021
 20
339.25
 30
0.0
 11
-42.000000000000007
 21
339.25
 31
0.0
  0
LINE
  5
10C
  8
DATA
  6
CONTINUOUS
 62
     7
 10
-51.96401933148509
 20
369.44999999999999
 30
0.0
 11
-41.535980668514931
 21
369.44999999999999
 31
0.0
  0
LINE
  5
10D
  8
DATA
  6
CONTINUOUS
 62
     7
 10
-51.96401933148509
 20
367.14999999999998
 30
0.0
 11
-41.535980668514931
 21
367.14999999999998
 31
0.0
  0
LINE
  5
10E
  8
DATA
  6
CONTINUOUS
 62
     7
 10
-51.96401933148509
 20
369.44999999999999
 30
0.0
 11
-51.96401933148509
 21
367.14999999999998
 31
0.0
  0
LINE
  5
10F
  8
DATA
  6
CONTINUOUS
 62
     7
 10
-41.535980668514931
 20
369.44999999999999
 30
0.0
 11
-41.535980668514931
 21
367.14999999999998
 31
0.0
  0
CIRCLE
  5
110
  8
DATA
  6
CONTINUOUS
 62
     7
 10
-46.750000000000021
 20
398.75
 30
0.0
 40
7.0
  0
CIRCLE
  5
111
  8
DATA
  6
CONTINUOUS
 62
     7
 10
-46.750000000000021
 20
398.75
 30
0.0
 40
1.4250000000000109
  0
CIRCLE
  5
112
  8
DATA
  6
CONTINUOUS
 62
     7
 10
-46.750000000000021
 20
398.75
 30
0.0
 40
6.5
  0
CIRCLE
  5
113
  8
DATA
  6
CONTINUOUS
 62
     7
 10
-46.750000000000021
 20
84.500000000360373
 30
0.0
 40
9.5
  0
LINE
  5
114
  8
DATA
  6
CONTINUOUS
 62
     7
 10
-50.15000000000002
 20
95.370738413818515
 30
0.0
 11
-50.15000000000002
 21
94.760000000359682
 31
0.0
  0
LINE
  5
115
  8
DATA
  6
CONTINUOUS
 62
     7
 10
-43.40048818690164
 20
95.389925231424641
 30
0.0
 11
-43.40048818690164
 21
94.700000000360205
 31
0.0
  0
ARC
  5
116
  8
DATA
  6
CONTINUOUS
 62
     7
 10
-46.750000000000021
 20
86.500000000360373
 30
0.0
 40
9.5000000000000142
 50
69.354787441978644
 51
110.9709607722325
  0
ARC
  5
117
  8
DATA
  6
CONTINUOUS
 62
     7
 10
-46.831007210309338
 20
88.457103067496604
 30
0.0
 40
7.1233575569615804
 50
61.210873009302091
 51
117.7704885126291
  0
LINE
  5
118
  8
DATA
  6
CONTINUOUS
 62
     7
 10
-49.552714552334081
 20
95.040000000360337
 30
0.0
 11
-49.552714552334081
 21
93.577157657806907
 31
0.0
  0
LINE
  5
119
  8
DATA
  6
CONTINUOUS
 62
     7
 10
-43.947285447665948
 20
94.970655990439354
 30
0.0
 11
-43.947285447665948
 21
93.577157657806907
 31
0.0
  0
ARC
  5
11A
  8
DATA
  6
CONTINUOUS
 62
     7
 10
-46.749999999999183
 20
84.500000000360814
 30
0.0
 40
7.9999999999991873
 50
62.44366095642404
 51
48.927249057893292
  0
CIRCLE
  5
11B
  8
DATA
  6
CONTINUOUS
 62
     7
 10
-46.750000000000021
 20
79.981523601214761
 30
0.0
 40
1.199999999999988
  0
CIRCLE
  5
11C
  8
DATA
  6
CONTINUOUS
 62
     7
 10
-51.144784291593098
 20
83.450000000360347
 30
0.0
 40
1.199999999999988
  0
CIRCLE
  5
11D
  8
DATA
  6
CONTINUOUS
 62
     7
 10
-42.355215708406931
 20
83.450000000360347
 30
0.0
 40
1.199999999999988
  0
ARC
  5
11E
  8
DATA
  6
CONTINUOUS
 62
     7
 10
-42.461535953882318
 20
90.783226279656887
 30
0.0
 40
1.0000000000000091
 50
345.39115668930378
 51
125.9797533250055
  0
LINE
  5
11F
  8
DATA
  6
CONTINUOUS
 62
     7
 10
162.5
 20
118.75
 30
0.0
 11
162.5
 21
223.7854187625849
 31
0.0
  0
LINE
  5
120
  8
DATA
  6
CONTINUOUS
 62
     7
 10
162.5
 20
118.75
 30
0.0
 11
181.5
 21
118.75
 31
0.0
  0
LINE
  5
121
  8
DATA
  6
CONTINUOUS
 62
     7
 10
181.5
 20
118.75
 30
0.0
 11
181.5
 21
223.7854187625849
 31
0.0
  0
LINE
  5
122
  8
DATA
  6
CONTINUOUS
 62
     7
 10
167.25
 20
273.75
 30
0.0
 11
176.75
 21
273.75
 31
0.0
  0
LINE
  5
123
  8
DATA
  6
CONTINUOUS
 62
     7
 10
167.25
 20
263.75
 30
0.0
 11
167.25
 21
273.75
 31
0.0
  0
ARC
  5
124
  8
DATA
  6
CONTINUOUS
 62
     7
 10
49.972027027029
 20
263.92563063063039
 30
0.0
 40
117.27810448147309
 50
347.0754916853241
 51
359.91419627990967
  0
ARC
  5
125
  8
DATA
  6
CONTINUOUS
 62
     7
 10
251.65443148243401
 20
217.83425833321701
 30
0.0
 40
89.604113614228197
 50
167.0595793513568
 51
171.35764532212571
  0
ARC
  5
126
  8
DATA
  6
CONTINUOUS
 62
     7
 10
212.5000000000006
 20
223.7854187625849
 30
0.0
 40
50.000000000000597
 50
171.35764532212579
 51
180.0
  0
LINE
  5
127
  8
DATA
  6
CONTINUOUS
 62
     7
 10
176.75
 20
263.75
 30
0.0
 11
176.75
 21
273.75
 31
0.0
  0
ARC
  5
128
  8
DATA
  6
CONTINUOUS
 62
     7
 10
294.02797297297087
 20
263.92563063063039
 30
0.0
 40
117.27810448147309
 50
180.08580372009021
 51
192.9245083146759
  0
ARC
  5
129
  8
DATA
  6
CONTINUOUS
 62
     7
 10
92.345568517565994
 20
217.83425833321701
 30
0.0
 40
89.604113614228197
 50
8.6423546778743336
 51
12.940420648643149
  0
ARC
  5
12A
  8
DATA
  6
CONTINUOUS
 62
     7
 10
131.4999999999994
 20
223.7854187625849
 30
0.0
 40
50.000000000000568
 50
0.0
 51
8.6423546778742093
  0
LINE
  5
12B
  8
DATA
  6
CONTINUOUS
 62
     7
 10
167.25
 20
269.75
 30
0.0
 11
176.75
 21
269.75
 31
0.0
  0
LINE
  5
12C
  8
DATA
  6
CONTINUOUS
 62
     7
 10
167.25
 20
267.75
 30
0.0
 11
176.75
 21
267.75
 31
0.0
  0
LINE
  5
12D
  8
DATA
  6
CONTINUOUS
 62
     7
 10
167.25
 20
265.25
 30
0.0
 11
176.75
 21
265.25
 31
0.0
  0
LINE
  5
12E
  8
DATA
  6
CONTINUOUS
 62
     7
 10
167.25
 20
263.25
 30
0.0
 11
176.75
 21
263.25
 31
0.0
  0
LINE
  5
12F
  8
DATA
  6
CONTINUOUS
 62
     7
 10
168.125
 20
273.75
 30
0.0
 11
168.125
 21
289.92587332688839
 31
0.0
  0
LINE
  5
130
  8
DATA
  6
CONTINUOUS
 62
     7
 10
175.875
 20
273.75
 30
0.0
 11
175.875
 21
297.67587332688839
 31
0.0
  0
LINE
  5
131
  8
DATA
  6
CONTINUOUS
 62
     7
 10
141.60549508817809
 20
304.05087332688839
 30
0.0
 11
141.60549508817809
 21
313.55087332688839
 31
0.0
  0
LINE
  5
132
  8
DATA
  6
CONTINUOUS
 62
     7
 10
91.605495088177989
 20
301.80087332688839
 30
0.0
 11
91.605495088177989
 21
315.80087332688839
 31
0.0
  0
LINE
  5
133
  8
DATA
  6
CONTINUOUS
 62
     7
 10
141.60549508817809
 20
304.05087332688839
 30
0.0
 11
131.60549508817809
 21
304.05087332688839
 31
0.0
  0
LINE
  5
134
  8
DATA
  6
CONTINUOUS
 62
     7
 10
141.60549508817809
 20
313.55087332688839
 30
0.0
 11
131.60549508817809
 21
313.55087332688839
 31
0.0
  0
LINE
  5
135
  8
DATA
  6
CONTINUOUS
 62
     7
 10
131.60549508817809
 20
304.05087332688839
 30
0.0
 11
120.0554950881786
 21
304.05087332688839
 31
0.0
  0
ARC
  5
136
  8
DATA
  6
CONTINUOUS
 62
     7
 10
127.7057320550003
 20
159.2577453648253
 30
0.0
 40
144.99508967784681
 50
93.024446674995829
 51
98.176985605916073
  0
ARC
  5
137
  8
DATA
  6
CONTINUOUS
 62
     7
 10
99.971316834161243
 20
352.27040612000542
 30
0.0
 40
50.000000002473321
 50
271.98252386108442
 51
278.17698560561013
  0
LINE
  5
138
  8
DATA
  6
CONTINUOUS
 62
     7
 10
131.60549508817809
 20
313.55087332688839
 30
0.0
 11
120.0554950881786
 21
313.55087332688839
 31
0.0
  0
ARC
  5
139
  8
DATA
  6
CONTINUOUS
 62
     7
 10
127.7057320550003
 20
458.34400128895049
 30
0.0
 40
144.99508967784621
 50
261.823014394084
 51
266.97555332500423
  0
ARC
  5
13A
  8
DATA
  6
CONTINUOUS
 62
     7
 10
99.971316834161243
 20
265.3313405337708
 30
0.0
 40
50.00000000247362
 50
81.823014394389986
 51
88.017476138915654
  0
LINE
  5
13B
  8
DATA
  6
CONTINUOUS
 62
     7
 10
137.60549508817809
 20
304.05087332688839
 30
0.0
 11
137.60549508817809
 21
313.55087332688839
 31
0.0
  0
LINE
  5
13C
  8
DATA
  6
CONTINUOUS
 62
     7
 10
135.60549508817809
 20
304.05087332688839
 30
0.0
 11
135.60549508817809
 21
313.55087332688839
 31
0.0
  0
LINE
  5
13D
  8
DATA
  6
CONTINUOUS
 62
     7
 10
133.10549508817809
 20
304.05087332688839
 30
0.0
 11
133.10549508817809
 21
313.55087332688839
 31
0.0
  0
LINE
  5
13E
  8
DATA
  6
CONTINUOUS
 62
     7
 10
131.10549508817809
 20
304.05087332688839
 30
0.0
 11
131.10549508817809
 21
313.55087332688839
 31
0.0
  0
LINE
  5
13F
  8
DATA
  6
CONTINUOUS
 62
     7
 10
100.905495088178
 20
303.5868539954032
 30
0.0
 11
100.905495088178
 21
314.01489265837341
 31
0.0
  0
LINE
  5
140
  8
DATA
  6
CONTINUOUS
 62
     7
 10
103.205495088178
 20
303.5868539954032
 30
0.0
 11
103.205495088178
 21
314.01489265837341
 31
0.0
  0
LINE
  5
141
  8
DATA
  6
CONTINUOUS
 62
     7
 10
100.905495088178
 20
303.5868539954032
 30
0.0
 11
103.205495088178
 21
303.5868539954032
 31
0.0
  0
LINE
  5
142
  8
DATA
  6
CONTINUOUS
 62
     7
 10
100.905495088178
 20
314.01489265837341
 30
0.0
 11
103.205495088178
 21
314.01489265837341
 31
0.0
  0
LINE
  5
143
  8
DATA
  6
CONTINUOUS
 62
     7
 10
153.125
 20
304.92587332688839
 30
0.0
 11
141.60549508817809
 21
304.92587332688839
 31
0.0
  0
LINE
  5
144
  8
DATA
  6
CONTINUOUS
 62
     7
 10
141.60549508817809
 20
312.67587332688839
 30
0.0
 11
160.875
 21
312.67587332688839
 31
0.0
  0
ARC
  5
145
  8
DATA
  6
CONTINUOUS
 62
     7
 10
153.125
 20
289.92587332688839
 30
0.0
 40
15.0
 50
0.0
 51
90.0
  0
ARC
  5
146
  8
DATA
  6
CONTINUOUS
 62
     7
 10
160.875
 20
297.67587332688839
 30
0.0
 40
15.0
 50
0.0
 51
90.0
  0
CIRCLE
  5
147
  8
DATA
  6
CONTINUOUS
 62
     7
 10
-46.750000000000021
 20
-143.75011193386081
 30
0.0
 40
22.5
  0
CIRCLE
  5
148
  8
DATA
  6
CONTINUOUS
 62
     7
 10
-46.750000000000021
 20
-143.75011193386081
 30
0.0
 40
12.65
  0
CIRCLE
  5
149
  8
DATA
  6
CONTINUOUS
 62
     7
 10
-46.750000000000021
 20
-143.75011193386081
 30
0.0
 40
7.8499999999999934
  0
CIRCLE
  5
14A
  8
DATA
  6
CONTINUOUS
 62
     7
 10
-46.750000000000021
 20
-126.0501119338609
 30
0.0
 40
1.5999999999999941
  0
CIRCLE
  5
14B
  8
DATA
  6
CONTINUOUS
 62
     7
 10
-62.078649646984367
 20
-152.60011193386069
 30
0.0
 40
1.5999999999999941
  0
CIRCLE
  5
14C
  8
DATA
  6
CONTINUOUS
 62
     7
 10
-46.750000000000021
 20
-126.0501119338609
 30
0.0
 40
3.3499999999999939
  0
CIRCLE
  5
14D
  8
DATA
  6
CONTINUOUS
 62
     7
 10
-62.078649646984367
 20
-152.60011193386069
 30
0.0
 40
3.3499999999999939
  0
CIRCLE
  5
14E
  8
DATA
  6
CONTINUOUS
 62
     7
 10
-31.421350353015619
 20
-152.60011193386069
 30
0.0
 40
3.3499999999999939
  0
CIRCLE
  5
14F
  8
DATA
  6
CONTINUOUS
 62
     7
 10
-31.421350353015619
 20
-152.60011193386069
 30
0.0
 40
1.5999999999999941
  0
LINE
  5
150
  8
DATA
  6
CONTINUOUS
 62
     7
 10
-69.250000000000014
 20
-20.75
 30
0.0
 11
-24.250000000000011
 21
-20.75
 31
0.0
  0
LINE
  5
151
  8
DATA
  6
CONTINUOUS
 62
     7
 10
-69.250000000000014
 20
-18.75
 30
0.0
 11
-24.250000000000011
 21
-18.75
 31
0.0
  0
LINE
  5
152
  8
DATA
  6
CONTINUOUS
 62
     7
 10
-24.250000000000011
 20
-18.75
 30
0.0
 11
-24.250000000000011
 21
-20.75
 31
0.0
  0
LINE
  5
153
  8
DATA
  6
CONTINUOUS
 62
     7
 10
-69.250000000000014
 20
-20.75
 30
0.0
 11
-69.250000000000014
 21
-18.75
 31
0.0
  0
LINE
  5
154
  8
DATA
  6
CONTINUOUS
 62
     7
 10
-54.600000000000001
 20
14.25
 30
0.0
 11
-38.900000000000027
 21
14.25
 31
0.0
  0
LINE
  5
155
  8
DATA
  6
CONTINUOUS
 62
     7
 10
-59.40000000000002
 20
-12.75
 30
0.0
 11
-59.40000000000002
 21
-4.75
 31
0.0
  0
LINE
  5
156
  8
DATA
  6
CONTINUOUS
 62
     7
 10
-34.100000000000009
 20
-12.75
 30
0.0
 11
-34.100000000000009
 21
-4.75
 31
0.0
  0
LINE
  5
157
  8
DATA
  6
CONTINUOUS
 62
     7
 10
-58.750000000000021
 20
-18.75
 30
0.0
 11
-58.750000000000021
 21
-12.75
 31
0.0
  0
LINE
  5
158
  8
DATA
  6
CONTINUOUS
 62
     7
 10
-34.750000000000007
 20
-12.75
 30
0.0
 11
-34.750000000000007
 21
-18.75
 31
0.0
  0
LINE
  5
159
  8
DATA
  6
CONTINUOUS
 62
     7
 10
-58.750000000000021
 20
-17.25
 30
0.0
 11
-34.750000000000007
 21
-17.25
 31
0.0
  0
LINE
  5
15A
  8
DATA
  6
CONTINUOUS
 62
     7
 10
-59.40000000000002
 20
-12.75
 30
0.0
 11
-34.100000000000009
 21
-12.75
 31
0.0
  0
LINE
  5
15B
  8
DATA
  6
CONTINUOUS
 62
     7
 10
-58.750000000000021
 20
-2.25
 30
0.0
 11
-34.750000000000007
 21
-2.25
 31
0.0
  0
LINE
  5
15C
  8
DATA
  6
CONTINUOUS
 62
     7
 10
-58.750000000000021
 20
-4.75
 30
0.0
 11
-58.750000000000021
 21
-2.25
 31
0.0
  0
LINE
  5
15D
  8
DATA
  6
CONTINUOUS
 62
     7
 10
-34.750000000000007
 20
-4.75
 30
0.0
 11
-34.750000000000007
 21
-2.25
 31
0.0
  0
LINE
  5
15E
  8
DATA
  6
CONTINUOUS
 62
     7
 10
-59.40000000000002
 20
-4.75
 30
0.0
 11
-34.100000000000009
 21
-4.75
 31
0.0
  0
LINE
  5
15F
  8
DATA
  6
CONTINUOUS
 62
     7
 10
-56.000000000000021
 20
-2.25
 30
0.0
 11
-56.000000000000021
 21
1.75
 31
0.0
  0
LINE
  5
160
  8
DATA
  6
CONTINUOUS
 62
     7
 10
-37.500000000000021
 20
1.75
 30
0.0
 11
-37.500000000000021
 21
-2.25
 31
0.0
  0
LINE
  5
161
  8
DATA
  6
CONTINUOUS
 62
     7
 10
-56.000000000000021
 20
1.75
 30
0.0
 11
-37.500000000000021
 21
1.75
 31
0.0
  0
LINE
  5
162
  8
DATA
  6
CONTINUOUS
 62
     7
 10
-54.600000000000001
 20
1.75
 30
0.0
 11
-54.600000000000001
 21
14.25
 31
0.0
  0
LINE
  5
163
  8
DATA
  6
CONTINUOUS
 62
     7
 10
-38.900000000000027
 20
14.25
 30
0.0
 11
-38.900000000000027
 21
1.75
 31
0.0
  0
LINE
  5
164
  8
DATA
  6
CONTINUOUS
 62
     7
 10
-56.000000000000021
 20
-2.25
 30
0.0
 11
-37.500000000000021
 21
-1.1500000000000341
 31
0.0
  0
LINE
  5
165
  8
DATA
  6
CONTINUOUS
 62
     7
 10
-56.000000000000021
 20
-1.25
 30
0.0
 11
-37.500000000000021
 21
-0.1500000000000341
 31
0.0
  0
LINE
  5
166
  8
DATA
  6
CONTINUOUS
 62
     7
 10
-56.000000000000021
 20
-0.25
 30
0.0
 11
-37.500000000000021
 21
0.8499999999999658
 31
0.0
  0
LINE
  5
167
  8
DATA
  6
CONTINUOUS
 62
     7
 10
-56.000000000000021
 20
0.75
 30
0.0
 11
-37.500000000000021
 21
1.849999999999965
 31
0.0
  0
LINE
  5
168
  8
DATA
  6
CONTINUOUS
 62
     7
 10
-57.200000000000031
 20
-12.75
 30
0.0
 11
-57.200000000000031
 21
-4.75
 31
0.0
  0
LINE
  5
169
  8
DATA
  6
CONTINUOUS
 62
     7
 10
-55.000000000000021
 20
-12.75
 30
0.0
 11
-55.000000000000021
 21
-4.75
 31
0.0
  0
LINE
  5
16A
  8
DATA
  6
CONTINUOUS
 62
     7
 10
-52.800000000000018
 20
-12.75
 30
0.0
 11
-52.800000000000018
 21
-4.75
 31
0.0
  0
LINE
  5
16B
  8
DATA
  6
CONTINUOUS
 62
     7
 10
-50.600000000000009
 20
-12.75
 30
0.0
 11
-50.600000000000009
 21
-4.75
 31
0.0
  0
LINE
  5
16C
  8
DATA
  6
CONTINUOUS
 62
     7
 10
-48.40000000000002
 20
-12.75
 30
0.0
 11
-48.40000000000002
 21
-4.75
 31
0.0
  0
LINE
  5
16D
  8
DATA
  6
CONTINUOUS
 62
     7
 10
-46.200000000000031
 20
-12.75
 30
0.0
 11
-46.200000000000031
 21
-4.75
 31
0.0
  0
LINE
  5
16E
  8
DATA
  6
CONTINUOUS
 62
     7
 10
-44.000000000000021
 20
-12.75
 30
0.0
 11
-44.000000000000021
 21
-4.75
 31
0.0
  0
LINE
  5
16F
  8
DATA
  6
CONTINUOUS
 62
     7
 10
-41.800000000000018
 20
-12.75
 30
0.0
 11
-41.800000000000018
 21
-4.75
 31
0.0
  0
LINE
  5
170
  8
DATA
  6
CONTINUOUS
 62
     7
 10
-39.600000000000037
 20
-12.75
 30
0.0
 11
-39.600000000000037
 21
-4.75
 31
0.0
  0
LINE
  5
171
  8
DATA
  6
CONTINUOUS
 62
     7
 10
-37.400000000000027
 20
-12.75
 30
0.0
 11
-37.400000000000027
 21
-4.75
 31
0.0
  0
LINE
  5
172
  8
DATA
  6
CONTINUOUS
 62
     7
 10
-35.200000000000031
 20
-12.75
 30
0.0
 11
-35.200000000000031
 21
-4.75
 31
0.0
  0
LINE
  5
173
  8
DATA
  6
CONTINUOUS
 62
     7
 10
-48.390000000000001
 20
1.75
 30
0.0
 11
-48.390000000000001
 21
8.75
 31
0.0
  0
LINE
  5
174
  8
DATA
  6
CONTINUOUS
 62
     7
 10
-45.109999999999999
 20
8.75
 30
0.0
 11
-45.109999999999999
 21
1.75
 31
0.0
  0
LINE
  5
175
  8
DATA
  6
CONTINUOUS
 62
     7
 10
-48.390000000000001
 20
8.75
 30
0.0
 11
-45.109999999999999
 21
8.75
 31
0.0
  0
LINE
  5
176
  8
DATA
  6
CONTINUOUS
 62
     7
 10
-42.600000000000001
 20
1.75
 30
0.0
 11
-42.600000000000001
 21
14.25
 31
0.0
  0
LINE
  5
177
  8
DATA
  6
CONTINUOUS
 62
     7
 10
-41.982182712271573
 20
1.75
 30
0.0
 11
-41.982182712271573
 21
14.25
 31
0.0
  0
LINE
  5
178
  8
DATA
  6
CONTINUOUS
 62
     7
 10
-56.250000000000021
 20
-22.949999999999989
 30
0.0
 11
-37.250000000000007
 21
-22.949999999999989
 31
0.0
  0
LINE
  5
179
  8
DATA
  6
CONTINUOUS
 62
     7
 10
-46.750000000000021
 20
-22.949999999999989
 30
0.0
 11
-46.750000000000021
 21
-20.75
 31
0.0
  0
LINE
  5
17A
  8
DATA
  6
CONTINUOUS
 62
     7
 10
-56.250000000000021
 20
-22.949999999999989
 30
0.0
 11
-55.842908425855178
 21
-33.371544298108176
 31
0.0
  0
LINE
  5
17B
  8
DATA
  6
CONTINUOUS
 62
     7
 10
-37.250000000000007
 20
-22.949999999999989
 30
0.0
 11
-37.657091574144843
 21
-33.37154429810802
 31
0.0
  0
LINE
  5
17C
  8
DATA
  6
CONTINUOUS
 62
     7
 10
-51.649999999999991
 20
-56.25
 30
0.0
 11
-55.283190719991417
 21
-38.08404640004305
 31
0.0
  0
LINE
  5
17D
  8
DATA
  6
CONTINUOUS
 62
     7
 10
-41.850000000000009
 20
-56.25
 30
0.0
 11
-38.216809280008633
 21
-38.084046400042951
 31
0.0
  0
LINE
  5
17E
  8
DATA
  6
CONTINUOUS
 62
     7
 10
-55.655055307071883
 20
-35.75
 30
0.0
 11
-37.844944692928017
 21
-35.75
 31
0.0
  0
LINE
  5
17F
  8
DATA
  6
CONTINUOUS
 62
     7
 10
-55.190000000000012
 20
-38.550000000000011
 30
0.0
 11
-38.310000000000016
 21
-38.550000000000011
 31
0.0
  0
LINE
  5
180
  8
DATA
  6
CONTINUOUS
 62
     7
 10
-54.790000000000028
 20
-40.550000000000011
 30
0.0
 11
-38.710000000000001
 21
-40.550000000000011
 31
0.0
  0
LINE
  5
181
  8
DATA
  6
CONTINUOUS
 62
     7
 10
-54.390000000000022
 20
-42.550000000000011
 30
0.0
 11
-39.109999999999999
 21
-42.550000000000011
 31
0.0
  0
LINE
  5
182
  8
DATA
  6
CONTINUOUS
 62
     7
 10
-53.990000000000009
 20
-44.549999999999997
 30
0.0
 11
-39.510000000000012
 21
-44.549999999999997
 31
0.0
  0
LINE
  5
183
  8
DATA
  6
CONTINUOUS
 62
     7
 10
-53.590000000000011
 20
-46.550000000000011
 30
0.0
 11
-39.910000000000011
 21
-46.550000000000011
 31
0.0
  0
LINE
  5
184
  8
DATA
  6
CONTINUOUS
 62
     7
 10
-53.190000000000012
 20
-48.550000000000011
 30
0.0
 11
-40.310000000000009
 21
-48.550000000000011
 31
0.0
  0
ARC
  5
185
  8
DATA
  6
CONTINUOUS
 62
     7
 10
-25.865770449263788
 20
-32.200562345897602
 30
0.0
 40
30.000000000000011
 50
182.2369790634377
 51
191.30993247402009
  0
ARC
  5
186
  8
DATA
  6
CONTINUOUS
 62
     7
 10
-67.634229550736208
 20
-32.20056234589709
 30
0.0
 40
30.000000000000039
 50
348.69006752597909
 51
357.76302093656159
  0
LINE
  5
187
  8
DATA
  6
CONTINUOUS
 62
     7
 10
-51.65000000000002
 20
-56.25
 30
0.0
 11
-41.850000000000009
 21
-56.25
 31
0.0
  0
LINE
  5
188
  8
DATA
  6
CONTINUOUS
 62
     7
 10
-57.750000000000021
 20
-22.949999999999989
 30
0.0
 11
-35.750000000000007
 21
-22.949999999999989
 31
0.0
  0
LINE
  5
189
  8
DATA
  6
CONTINUOUS
 62
     7
 10
-57.750000000000021
 20
-22.949999999999989
 30
0.0
 11
-57.750000000000021
 21
-20.75
 31
0.0
  0
LINE
  5
18A
  8
DATA
  6
CONTINUOUS
 62
     7
 10
-35.750000000000007
 20
-22.949999999999989
 30
0.0
 11
-35.750000000000007
 21
-20.75
 31
0.0
  0
CIRCLE
  5
18B
  8
DATA
  6
CONTINUOUS
 62
     7
 10
-46.750000000000021
 20
-147.9477426380825
 30
0.0
 40
1.2849999999999959
  0
CIRCLE
  5
18C
  8
DATA
  6
CONTINUOUS
 62
     7
 10
-50.626414072768213
 20
-145.5107042578054
 30
0.0
 40
1.2849999999999959
  0
CIRCLE
  5
18D
  8
DATA
  6
CONTINUOUS
 62
     7
 10
-42.873585927231808
 20
-145.5107042578054
 30
0.0
 40
1.2849999999999959
  0
ARC
  5
18E
  8
DATA
  6
CONTINUOUS
 62
     7
 10
-51.699999999999903
 20
-137.77540613745879
 30
0.0
 40
1.13137084989853
 50
40.107835965612971
 51
219.17516296021969
  0
LINE
  5
18F
  8
DATA
  6
CONTINUOUS
 62
     7
 10
-53.2505384813782
 20
368.65444501759191
 30
0.0
 11
-53.750000000000021
 21
378.75
 31
0.0
  0
LINE
  5
190
  8
DATA
  6
CONTINUOUS
 62
     7
 10
-40.249461518621828
 20
368.65444501759191
 30
0.0
 11
-39.750000000000007
 21
378.75
 31
0.0
  0
LINE
  5
191
  8
DATA
  6
CONTINUOUS
 62
     7
 10
91.605495088177989
 20
315.80087332688839
 30
0.0
 11
101.70105007058601
 21
315.30141180826649
 31
0.0
  0
LINE
  5
192
  8
DATA
  6
CONTINUOUS
 62
     7
 10
91.605495088177989
 20
301.80087332688839
 30
0.0
 11
101.70105007058601
 21
302.30033484551012
 31
0.0
  0
CIRCLE
  5
193
  8
DATA
  6
CONTINUOUS
 62
     7
 10
156.2136241813179
 20
-143.74999999986059
 30
0.0
 40
22.499999999999879
  0
CIRCLE
  5
194
  8
DATA
  6
CONTINUOUS
 62
     7
 10
156.2136241813179
 20
-143.74999999986059
 30
0.0
 40
12.64999999999997
  0
CIRCLE
  5
195
  8
DATA
  6
CONTINUOUS
 62
     7
 10
156.2136241813179
 20
-143.74999999986059
 30
0.0
 40
7.8499999999999872
  0
CIRCLE
  5
196
  8
DATA
  6
CONTINUOUS
 62
     7
 10
156.2136241813179
 20
-126.0499999998606
 30
0.0
 40
1.5999999999999941
  0
CIRCLE
  5
197
  8
DATA
  6
CONTINUOUS
 62
     7
 10
140.88497453433351
 20
-152.59999999986039
 30
0.0
 40
1.5999999999999941
  0
CIRCLE
  5
198
  8
DATA
  6
CONTINUOUS
 62
     7
 10
156.2136241813179
 20
-126.0499999998606
 30
0.0
 40
3.3499999999999939
  0
CIRCLE
  5
199
  8
DATA
  6
CONTINUOUS
 62
     7
 10
140.88497453433351
 20
-152.59999999986039
 30
0.0
 40
3.3499999999999939
  0
CIRCLE
  5
19A
  8
DATA
  6
CONTINUOUS
 62
     7
 10
171.5422738283022
 20
-152.5999999998605
 30
0.0
 40
3.349999999999965
  0
CIRCLE
  5
19B
  8
DATA
  6
CONTINUOUS
 62
     7
 10
171.5422738283022
 20
-152.5999999998605
 30
0.0
 40
1.5999999999999801
  0
CIRCLE
  5
19C
  8
DATA
  6
CONTINUOUS
 62
     7
 10
156.2136241813179
 20
-147.9476307040822
 30
0.0
 40
1.2849999999999959
  0
CIRCLE
  5
19D
  8
DATA
  6
CONTINUOUS
 62
     7
 10
152.3372101085497
 20
-145.51059232380521
 30
0.0
 40
1.2849999999999959
  0
CIRCLE
  5
19E
  8
DATA
  6
CONTINUOUS
 62
     7
 10
160.0900382540861
 20
-145.51059232380521
 30
0.0
 40
1.2849999999999959
  0
ARC
  5
19F
  8
DATA
  6
CONTINUOUS
 62
     7
 10
151.26362418131799
 20
-137.77529420345849
 30
0.0
 40
1.13137084989853
 50
40.107835965612971
 51
219.17516296021969
  0
TEXT
  5
1A0
  8
DATA
 62
     7
 10
180.86873083973271
 20
-208.70479808857939
 30
0.0
 40
10.85894097222222
  1
取付け寸法図
 41
0.7
 11
180.86873083973271
 21
-197.84585711635719
 31
0.0
 73
     3
  0
CIRCLE
  5
1A1
  8
DATA
  6
CONTINUOUS
 62
     7
 10
281.21362418131758
 20
-143.74999999986059
 30
0.0
 40
22.5
  0
CIRCLE
  5
1A2
  8
DATA
  6
CONTINUOUS
 62
     7
 10
281.21362418131758
 20
-126.0499999998606
 30
0.0
 40
1.5999999999999941
  0
CIRCLE
  5
1A3
  8
DATA
  6
CONTINUOUS
 62
     7
 10
265.8849745343332
 20
-152.59999999986039
 30
0.0
 40
1.5999999999999941
  0
CIRCLE
  5
1A4
  8
DATA
  6
CONTINUOUS
 62
     7
 10
296.54227382830209
 20
-152.5999999998605
 30
0.0
 40
1.5999999999999941
  0
POLYLINE
  5
1A5
  8
DATA
  6
CONTINUOUS
 62
     7
 66
     1
 10
0.0
 20
0.0
 30
0.0
 70
     1
  0
VERTEX
  5
25A
  8
DATA
  6
CONTINUOUS
 62
     7
 10
281.21362418131758
 20
-132.74999999986059
 30
0.0
  0
VERTEX
  5
25B
  8
DATA
  6
CONTINUOUS
 62
     7
 10
271.6873447396888
 20
-138.24999999986059
 30
0.0
  0
VERTEX
  5
25C
  8
DATA
  6
CONTINUOUS
 62
     7
 10
271.6873447396888
 20
-149.24999999986059
 30
0.0
  0
VERTEX
  5
25D
  8
DATA
  6
CONTINUOUS
 62
     7
 10
281.21362418131758
 20
-154.74999999986059
 30
0.0
  0
VERTEX
  5
25E
  8
DATA
  6
CONTINUOUS
 62
     7
 10
290.73990362294637
 20
-149.24999999986059
 30
0.0
  0
VERTEX
  5
25F
  8
DATA
  6
CONTINUOUS
 62
     7
 10
290.73990362294637
 20
-138.24999999986059
 30
0.0
  0
SEQEND
  5
260
  8
DATA
  6
CONTINUOUS
 62
     7
  0
CIRCLE
  5
1AE
  8
DATA
  6
CONTINUOUS
 62
     7
 10
281.21362418131758
 20
-143.74999999986059
 30
0.0
 40
9.4022603665288838
  0
CIRCLE
  5
1AF
  8
DATA
  6
STYLE_06
 62
     7
 10
281.21362418131758
 20
-143.74999999986059
 30
0.0
 40
18.0
  0
CIRCLE
  5
1B0
  8
DATA
  6
CONTINUOUS
 62
     7
 10
281.21362418131758
 20
-143.74999999986059
 30
0.0
 40
4.6999999999999877
  0
CIRCLE
  5
1B1
  8
DATA
  6
CONTINUOUS
 62
     7
 10
281.21362418131758
 20
-143.74999999986059
 30
0.0
 40
1.5
  0
LINE
  5
1B2
  8
DATA
  6
CONTINUOUS
 62
     7
 10
168.75
 20
-212.5
 30
0.0
 11
277.96501064914668
 21
-212.5
 31
0.0
  0
TEXT
  5
1B3
  8
DATA
 62
     7
 10
-87.350942628986814
 20
-197.16173381390249
 30
0.0
 40
10.85894097222222
  1
PS 3 F-LOCL
 41
0.7
 11
-87.350942628986814
 21
-186.30279284168029
 31
0.0
 73
     3
  0
LINE
  5
1B4
  8
DATA
  6
CONTINUOUS
 62
     7
 10
-93.75
 20
-200.0
 30
0.0
 11
-6.25
 21
-200.0
 31
0.0
  0
ENDSEC
  0
EOF
